PrimaNota.ru - самый крупный в мире бесплатный архив песенных текстов, аккордов, табулатур и нот


Eternitys Children - You Cant Put A Thing Over Me - бас-таба, видео

Регистрация Запомнить меня
Войти через:  Facebook Google Twitter Vk Yandex Mail.ru

Eternitys Children - You Cant Put A Thing Over Me - бас-таба, видео

Печатать
Просмотров: 110
Tabbed by: 6METAL6BASSIST6
E-mail: petergriffinav@gmail.com

Tuning: EADG

G|----------------------------------------------------------------|
D|8-----------7-----------6---------------------------------------| x2
A|--------------------------------9-----------8-----------6-------|
E|----------------------------------------------------------------|

G|----------------------------------------------------------------|
D|8---------------7-------6---------------------------------------|
A|--------------------------------9-----------8-----------6-------|
E|----------------------------------------------------------------|

G|----------------------------------------------------------------|
D|8-----------7-----------6---------------------------------------|
A|--------------------------------9-----------8-----------6-------|
E|----------------------------------------------------------------|

0:19

G|----------------------------------------------------------------|
D|8-----------7-----------6---------------------------------------| x2
A|--------------------------------9-----------8-----------6-------|
E|----------------------------------------------------------------|

G|----------------------------------------------------------------|
D|6-----------6-----------6---6---5---5-------5-----------5---5---|
A|----------------6---6---------------------------5---5-----------|
E|----------------------------------------------------------------|

G|----------------------------------------------------------------|
D|4-----------4-----------4---5---6-------------------6-------7---|
A|----------------4---4-------------------------------------------|
E|----------------------------------------------------------------|

G|----------------------------------------------------------------|
D|8-----------7-----------6---------------------------------------| x2
A|--------------------------------9-----------8-----------6-------|
E|----------------------------------------------------------------|

0:45

G|----------------------------------------------------------------|
D|8-----------7-----------6---------------------------------------| x2
A|--------------------------------9-----------8-----------6-------|
E|----------------------------------------------------------------|

G|----------------------------------------------------------------|
D|6-----------6-----------6---6---5-----------5-----------5---5---|
A|----------------6---6---------------------------5---5-----------|
E|----------------------------------------------------------------|

G|----------------------------------------------------------------|
D|4-----------4-----------4---5---6-------------------6-------7---|
A|----------------4---4-------------------------------------------|
E|----------------------------------------------------------------|

G|----------------------------------------------------------------|
D|8-----------7-----------6---------------------------------------| x2
A|--------------------------------9-----------8-----------6-------|
E|----------------------------------------------------------------|

1:10

G|----------------------------------------------------------------|
D|----------------------------------------------------------------| x3
A|8-----------6-----------5-------8-----------6-----------5-------|
E|----------------------------------------------------------------|

G|----------------------------------------------------------------|
D|4-----------4-----------4---5---6-------------------6-------7---|
A|----------------4---4-------------------------------------------|
E|----------------------------------------------------------------|

G|----------------------------------------------------------------|
D|8-----------7-----------6---------------------------------------| x2
A|--------------------------------9-----------8-----------6-------|
E|----------------------------------------------------------------|

1:36

G|----------------------------------------------------------------|
D|8-----------7-----------6---------------------------------------| x3
A|--------------------------------9-----------8-----------6-------|
E|----------------------------------------------------------------|

G|----------------------------------------------------------------|
D|6-----------6-----------6---6---5-----------5-----------5---5---|
A|----------------6---6---------------------------5---5-----------|
E|----------------------------------------------------------------|

G|----------------------------------------------------------------|
D|4-----------4-----------4---5---6-------------------6-------7---|
A|----------------4---4-------------------------------------------|
E|----------------------------------------------------------------|

G|----------------------------------------------------------------|
D|8-----------7-----------6---------------------------------------| x2
A|--------------------------------9-----------8-----------6-------|
E|----------------------------------------------------------------|

2:04

G|----------------------------------------------------------------|
D|8-----------7-----------6---------------------------------------| x2
A|--------------------------------9-----------8-----------6-------|
E|----------------------------------------------------------------|

G|----------------------------------------------------------------|
D|8-----------7-----------6---------------------------------------|
A|--------------------------------9-----------8---------6---------|
E|----------------------------------------------------------------|

G|----------------------------------------------------------------|
D|8-----------7-----------6---------------------------------------| x4
A|--------------------------------9-----------8-----------6-------|
E|----------------------------------------------------------------|

G|--------------------------------|
D|--------------------------------|
A|--------------------------------|
E|6-------------------------------|
Добавлено: 27.06.2016
Другие материалы по этой песне:
  • Аккорды и текст

Страница создана 27.06.2016
http://primanota.ru/eternitys-children/you-cant-put-a-thing-over-me-chords.htm
Привет, Гость.
Предлагаем пройти революционный курс по гитаре.
Подарок от PrimaNota.Ru, забирай!