PrimaNota.ru - самый крупный в мире бесплатный архив песенных текстов, аккордов, табулатур и нот


Eternal Summers - Together Or Alone - таба, видео

Регистрация Запомнить меня
Войти через:  Facebook Google Twitter Vk Yandex Mail.ru

Eternal Summers - Together Or Alone - таба, видео

Печатать
Просмотров: 57
-------------------------------------------------------------------------------
                     Together or Alone - Eternal Summers
-------------------------------------------------------------------------------
Tabbed by: seagulli

Tuning: Standard

Riff 1 :

   A
e|------------------------------------------------------------------------|
B|------------------------------------------------------------------------|
G|---------6-----------------6-----------------6-----------------6--------|
D|---7---7---------7---7---7---------7---7---7---------7---7---7--------7-|
A|-0---0-------------0---0-------------0---0-------------0---0------------|
E|------------------------------------------------------------------------|

Riff 2 :
   A
e|------------------------------------------------------------------------|
B|---------0-----------------0-----------------0-----------------0--------|
G|---6---6---------6---6---6---------6---6---6---------6---6---6--------6-|
D|-7---7-------------7---7-------------7---7-------------7---7------------|
A|------------------------------------------------------------------------|
E|------------------------------------------------------------------------|

Riff 3a :

e|---------------------------------------------------------|
B|---------------5-----------------------------5-----------|
G|-6---6-4-4---6-----6---6-6-4---4-4h6-6-4-4-------6-6-4-4-|
D|---------------------------------------------------------|
A|---------------------------------------------------------|
E|---------------------------------------------------------|

e|------------------------------------------|
B|------------------------------------------|
G|-4h6-6-6-6-4------------------------------|
D|-------------4---4-4\2-2-2-4-4---2-4-2-4--|
A|------------------------------------------|
E|------------------------------------------|

Riff 3b :

e|---------------------------------------------------------|
B|---------------5-----------------------------5-----------|
G|-6---6-4-4---6-----6---6-6-4---4-4h6-6-4-4-------6-6-4-4-|
D|---------------------------------------------------------|
A|---------------------------------------------------------|
E|---------------------------------------------------------|

e|------------------------------------------|
B|------------------------------------------|
G|-4h6-6-6-6-4------------------------------|
D|-------------4---4-4/2-2-2-4-4---2-4-2-4--|
A|------------------------------------------|
E|------------------------------------------|

Riff 4 :
   A       D       A       D       B
e|-------------------------------------|
B|-------------------------------------|
G|-6-6-----2-2-----6-----2-2-4-4-4-4-|
D|-7-7-----0-0-----7-----0-0-0-0-2-2-|
A|-0-0-----0-0-----0-----0-0-0-0-0-0-|
E|-------------------------------------|

Riff 5 :
   A
e|-0----12+---------6+----------12+---------6+-----|
B|-0---------12+--------6+-----------12+--------6+-|
G|-6-----------------------------------------------|
D|-7-----------------------------------------------|
A|-0-----------------------------------------------|
E|-------------------------------------------------|

(Riff 1)
How long til you're gone?
I used to want to
Be with you right or wrong.

Honesty- could it be
The trigger that makes us answer
All at once?

(Riff 3a)

(Riff 2)
In spite of stories told
The lies they rise and they unfold.
I'm not the soul you own.
Together or alone
This time we're growing old.

(Riff 3b)
On with it all
On with the gain
Of losing ourselves
Still playing the game
On with it all
On with the gain
Of losing ourselves

(Riff 4)
I cannot satisfy all that you require
Nor can we rectify dead desires

(Riff 5)
(Riff 2)

(Riff 1)
How long til you're gone?
I used to want to
Be with you right or wrong.
I am not the soul that you'll ever own.
Together or alone
We're growing old.


************************************

| \   slide down
| h   hammer-on
| +   harmonic

************************************
Добавлено: 24.12.2015
Другие материалы по этой песне:
  • Аккорды и текст

Страница создана 24.12.2015
http://primanota.ru/eternal-summers/together-or-alone-chords.htm
Привет, Гость.
Предлагаем пройти революционный курс по гитаре.
Подарок от PrimaNota.Ru, забирай!