PrimaNota.ru - самый крупный в мире бесплатный архив песенных текстов, аккордов, табулатур и нот


Eternal Elysium - Pasttime Is Endtime - таба

Регистрация Запомнить меня
Войти через:  Facebook Google Twitter Vk Yandex Mail.ru

Eternal Elysium - Pasttime Is Endtime - таба

Печатать
Просмотров: 24
-------------------------------------------------------------------------------
                             PASTTIME IS ENDTIME - Eternal Elysium
-------------------------------------------------------------------------------
Tabbed by: Golgathor

Tuning: D# G# C# F# A# d#

RIFF I
d#||-----------------------------------------------|
A#||-----------------------------------------------|
F#||------------7--7-9-7h9p7-----------------------|
C#||------5---5--------------9------5---5----------|
G#||-7~~7---7------------------7~~7---7---5~~---8~~|
D#||-----------------------------------------7~~---|

d#|------------------------------------------------------------||
A#|------------------------------------------------------------||
F#|------------7--7-9-7h9p7-------------10-12-10h12p10---------||
C#|------5---5--------------9----7--10-----------------12------||
G#|-7~~7---7------------------8---------------------------10-8-||
D#|------------------------------------------------------------|| 2x

RIFF II
d#||-----------------------------------------------------|
A#||-----------------------------------------------------|
F#||-----------------------------------------------------|
C#||-9-----9-----9---9---9/10\9-9------------------------|
G#||-7-----7-----7---7---7/-8\7-7-----7-8-7h8p7-5-----8~~|
D#||---0-0---0-0---0---0----------0-0--------------7-----|

d#|-----------------------------------------------------|
A#|-----------------------------------------------------|
F#|-----------------------------------------------------|
C#|-9-----9-----9---9---9/10\9-9------------------------|
G#|-7-----7-----7---7---7/-8\7-7-----7-8-7h8p7-5--------|
D#|---0-0---0-0---0---0----------0-0--------------7--3~~|

d#|-----------------------------------------------------|
A#|-----------------------------------------------------|
F#|-----------------------------------------------------|
C#|-9-----9-----9---9---9/10\9-9------------------------|
G#|-7-----7-----7---7---7/-8\7-7-----7-8-7h8p7-5-----8~~|
D#|---0-0---0-0---0---0----------0-0--------------7-----|

d#|--------------------------------------------||
A#|-----0--------------------------------------||
F#|-----0--------------------------------------||
C#|--------------------9-----9-----------------||
G#|-5-----5-5----------7-----7-----7--10-9-7-5-||
D#|-3-----3-3-1~~3--5~~--0-0---0-0-------------|| 2x

RIFF III
d#|-------------------------------------------------|
A#|-------------------------------------------------|
F#|-------------------------------------------------|
C#|-5-5---5-------------5/7-5-5---5-------------5/7-|
G#|-3-3---3---2-3-2-3-2-3/5-3-3---3---2-3-2-3-2-3/5-|
D#|-----x---x-------------------x---x---------------|

d#|------------------------------------------|
A#|------------------------------------------|
F#|------------------------------------------|
C#|-4----------9----5/7-4----------12----5/7-|
G#|-2--5--2----7----3/5-2--5--2----10----3/5-|
D#|----3--0--x----x--------3--0--x-----x-----|

d#|-------------------------------------------------|
A#|-------------------------------------------------|
F#|-------------------------------------------------|
C#|-5-5---5-------------5/7-5-5---5-------------5/7-|
G#|-3-3---3---2-3-2-3-2-3/5-3-3---3---2-3-2-3-2-3/5-|
D#|-----x---x-------------------x---x---------------|

d#|---------------------------------------|
A#|---------------------------------------|
F#|---------------------------------------|
C#|---------------------------------------|
G#|-7---------7~~------9-9-9-9-9-9-9------|
D#|-5---5-7-8----8~~5--7-7-7-7-7-7-7------|

RIFF IV
d#||----------------------------------------|
A#||----------------------------------------|
F#||----------------------------------------|
C#||-9-9--9--9--------9-9--9--9-10--10--10--|
G#||-7-7--7--7-2------7-7--7--7--8---8---8--|
D#||-----------0----------------------------|

d#|----------------------------------------||
A#|----------------------------------------||
F#|----------------------------------------||
C#|-9-9--9--9--------9-9--9--9-12--11--12--||
G#|-7-7--7--7-2------7-7--7--7-10---9--10--||
D#|-----------0----------------------------|| 2x

RIFF II
(Play 1x)

RIFF III
(Play 1x)

RIFF IV
(Play 2x)
Then:
d#|-------------------------------|
A#|-------------------------------|
F#|-------------------------------|
C#|-12--11--12--12--11------------|
G#|-10---9--10--10---9--10~~~~~~~~|
D#|-------------------------------|

RIFF V
d#||-------------------------------------------||
A#||-------------------------------------------||
F#||-------------------------------------------||
C#||-2h4--2----2h4--2----2h4--2------------2h4-||
G#||--------4---------4---------4------2h4-----||
D#||-------------------------------2h4---------|| 4x

RIFF VI
d#||---------------------------------------|
A#||---------------------------------------|
F#||---------------------------------------|
C#||--------------------4/6--6--6-6--6--6--|
G#||---4--4--4-4--4--4--2/4--4--4-4--4--4--|
D#||-0h2--2--2-2--2--2---------------------|

d#|---------------------------------------|
A#|---------------------------------------|
F#|---------------------------------------|
C#|-6\5--5--5-5--5--5---------------------|
G#|-4\3--3--3-3--3--3--5/6--6--6-6--6--6--|
D#|--------------------3/4--4--4-4--4--4--|

d#|---------------------------------------|
A#|---------------------------------------|
F#|---------------------------------------|
C#|--------------------4/6--6--6-6--6--6--|
G#|---4--4--4-4--4--4--2/4--4--4-4--4--4--|
D#|-0h2--2--2-2--2--2---------------------|

d#|---------------------------------------||
A#|---------------------------------------||
F#|---------------------------------------||
C#|-6\5--5--5-5--5--5--5/8--8--8-8--8--8--||
G#|-4\3--3--3-3--3--3--3/6--6--6-6--6--6--||
D#|---------------------------------------|| 2x

RIFF V
(Play 4x)

RIFF VI
(Play 2x)

RIFF V
(Play 4x)
Then:
d#|-----------------------------------|
A#|-----------------------------------|
F#|-----------------------------------|
C#|---------2h4-----------2h4-2-------|
G#|-----2h4-----------2h4-------4-2h4-|
D#|-2h4-----------2h4-----------------|

RIFF III
(One step higher)
d#|-------------------------------------------------|
A#|-------------------------------------------------|
F#|-------------------------------------------------|
C#|-7-7---7-------------7/9-7-7---7-------------7/9-|
G#|-5-5---5---4-5-4-5-4-5/7-5-5---5---4-5-4-5-4-5/7-|
D#|-----x---x-------------------x---x---------------|

d#|-------------------------------------------|
A#|-------------------------------------------|
F#|-------------------------------------------|
C#|-6----------11----7/9-6----------14----7/9-|
G#|-4--7--4-----9----5/7-4--7--4----12----5/7-|
D#|----5--2--x-----x--------5--2--x-----x-----|

d#|-------------------------------------------------|
A#|-------------------------------------------------|
F#|-------------------------------------------------|
C#|-7-7---7-------------7/9-7-7---7-------------7/9-|
G#|-5-5---5---4-5-4-5-4-5/7-5-5---5---4-5-4-5-4-5/7-|
D#|-----x---x-------------------x---x---------------|

d#|------------------------------------------------|
A#|------------------------------------------------|
F#|------------------------------------------------|
C#|------------------------------------------------|
G#|-9----------9~~-------11-11-11-11-11-11-11------|
D#|-7---7-9-10----10~~7---9--9--9--9--9--9--9------|

RIFF I
(One step higher)
d#||---------------------------------------------------|
A#||---------------------------------------------------|
F#||------------9--9-11-9h11p9-------------------------|
C#||------7---7----------------11------7---7-----------|
G#||-9~~9---9---------------------9~~9---9---7~~---10~~|
D#||--------------------------------------------9~~----|

d#|-----------------------------------------------------------------||
A#|-----------------------------------------------------------------||
F#|------------9--9-11-9h11p9---------------12-14-12h14p12----------||
C#|------7---7----------------11-----9--12-----------------14-------||
G#|-9~~9---9---------------------10---------------------------12-10-||
D#|-----------------------------------------------------------------|| 2x

d#||------------------------------------||
A#||------------------------------------||
F#||------------12-14-12h14p12----------||
C#||-----9--12-----------------14-------||
G#||-10---------------------------12-10-||
D#||------------------------------------|| 3x

RIFF IV
(One step higher)
d#||------------------------------------------------|
A#||------------------------------------------------|
F#||------------------------------------------------|
C#||-11-11--11--11--------11-11--11--11-12--12--12--|
G#||--9--9---9---9-4-------9--9---9---9-10--10--10--|
D#||---------------2--------------------------------|

d#|------------------------------------------------||
A#|------------------------------------------------||
F#|------------------------------------------------||
C#|-11-11--11--11--------11-11--11--11-14--13--14--||
G#|--9--9---9---9-4-------9--9---9---9-12--11--12--||
D#|---------------2--------------------------------|| 2x

OUTRO
d#|-----------------------------------------------------|
A#|-----------------------------------------------------|
F#|-----------------------------------------------------|
C#|-11-11-11-11-11-------------11-11-11-11-11-----------|
G#|--9--9--9--9--9--4-4-4-4-4---9--9--9--9--9-7-10~~~~~~|
D#|-----------------2-2-2-2-2---------------------------|


************************************

| /   slide up
| \   slide down
| h   hammer-on
| p   pull-off
| ~   vibrato
| +   harmonic
| x   Mute note
| b   Bend
| pb  Pre-bend
| br  Bend release
| pbr Pre-bend release
| brb Bend release bend

************************************
Добавлено: 18.11.2015
Другие материалы по этой песне:
  • Аккорды и текст

Страница создана 18.11.2015
http://primanota.ru/eternal-elysium/pasttime-is-endtime-chords.htm
Привет, Гость.
Предлагаем пройти революционный курс по гитаре.
Подарок от PrimaNota.Ru, забирай!