PrimaNota.ru - самый крупный в мире бесплатный архив песенных текстов, аккордов, табулатур и нот


Eternal Decision - Turn - таба, видео

Регистрация Запомнить меня
Войти через:  Facebook Google Twitter Vk Yandex Mail.ru

Eternal Decision - Turn - таба, видео

Печатать
Просмотров: 106
Уроки эстрадного вокала в Санкт-Петербурге
Artist: Eternal Decision
Album: Eternal Decision (Debut)
Song: Turn
Year: 1997

Guitar
INTRO:
e|------------------------------------------------------|
B|------------------------------------------------------|
G|------------------------------------------------------|
D|----------------------------------5--4--7--5----------|
A|-2--2--5--4--2--4--3--2--2--4--3--3--2--5--3----------|
E|-0--0--3--2--0--2--1--0--0--2--1----------------------|

e|------------------------------------------------------|
B|------------------------------------------------------|
G|------------------------------------------------------|
D|----------------------------------5--4--7--5----------|
A|-2--2--5--4--2--4--3--2--2--4--3--3--2--5--3----------|
E|-0--0--3--2--0--2--1--0--0--2--1----------------------|

e|------------------------------------------------------|
B|------------------------------------------------------|
G|------------------------------------------------------|
D|----------------------------------5--4--7--5----------|
A|-2--2--5--4--2--4--3--2--2--4--3--3--2--5--3----------|
E|-0--0--3--2--0--2--1--0--0--2--1----------------------|

e|------------------------------------------------------|
B|------------------------------------------------------|
G|------------------------------------------------------|
D|----------------------------------5--4--7--5----------|
A|-2--2--5--4--2--4--3--2--2--4--3--3--2--5--3----------|
E|-0--0--3--2--0--2--1--0--0--2--1----------------------|

PRE-VERSE:
e|----------------------------------------------------------------------|
B|----------------------------------------------------------------------|
G|----------------------------------------------------------------------|
D|--9------------------9--------------------9--------------------9------|
A|--7------------------7--------------------7--------------------7------|
E|----------------------------------------------------------------------| 
(Let the notes ring on this part as the bass plays, everytime it is played).
(Bass Plays on this part, everytime it is played).

e|------------------------------------------------------|
B|------------------------------------------------------|
G|------------------------------------------------------|
D|------------------------------------------------------|
A|-2--2--2--2--2--2--2--2-------------------------------|
E|-0--0--0--0--0--0--0--0-------------------------------|

VERSE:
e|------------------------------------------------------|
B|------------------------------------------------------|
G|------------------------------------------------------|
D|----------------------------------5--4--7--5----------|
A|-2--2--5--4--2--4--3--2--2--4--3--3--2--5--3----------|
E|-0--0--3--2--0--2--1--0--0--2--1----------------------|

e|------------------------------------------------------|
B|------------------------------------------------------|
G|------------------------------------------------------|
D|----------------------------------5--4--7--5----------|
A|-2--2--5--4--2--4--3--2--2--4--3--3--2--5--3----------|
E|-0--0--3--2--0--2--1--0--0--2--1----------------------|

e|------------------------------------------------------|
B|------------------------------------------------------|
G|------------------------------------------------------|
D|----------------------------------5--4--7--5----------|
A|-2--2--5--4--2--4--3--2--2--4--3--3--2--5--3----------|
E|-0--0--3--2--0--2--1--0--0--2--1----------------------|

e|------------------------------------------------------|
B|------------------------------------------------------|
G|------------------------------------------------------|
D|----------------------------------5--4--7--5----------|
A|-2--2--5--4--2--4--3--2--2--4--3--3--2--5--3----------|
E|-0--0--3--2--0--2--1--0--0--2--1----------------------|

PRE-CHORUS:
e|-------------------------------------------------------------|
B|-------------------------------------------------------------|
G|-------------------------------------------------------------|
D|--2-0--4-0--5-0---7-0---------2-0--4-0--5-0--7-0-------------|
A|--0p0--2p0--3p0---5p0--5h7h5--0p0--2p0--3p0--5p0--5h7h5------|
E|-------------------------------------------------------------|


e|------------------------------------------------------|
B|------------------------------------------------------|
G|------------------------------------------------------|
D|-2-0--4-0--5-0----------------------------------------|
A|-0p0--2p0--3p0--2--2--2--2--2--5--7--5----------------|
E|----------------0--0--0--0--0--3--5--3----------------|

CHORUS:
e|------------------------------------------------------|
B|------------------------------------------------------|
G|------------------------------------------------------|
D|------------------------------------------------------|
A|-9--7--5--9--7--5--2--5--2--9--7--5--9--7-------------|
E|-7--5--3--7--5--3--0--3--0--7--5--3--7--5-------------|

e|------------------------------------------------------|
B|------------------------------------------------------|
G|------------------------------------------------------|
D|------------------------------------------------------|
A|-9--7--5--9--7--5--2--5--2--9--7--5--9--7-------------|
E|-7--5--3--7--5--3--0--3--0--7--5--3--7--5-------------|

POST-CHORUS:
e|------------------------------------------------------|
B|------------------------------------------------------|
G|------------------------------------------------------|
D|----------------------------------5--4--7--5----------|
A|-2--2--5--4--2--4--3--2--2--4--3--3--2--5--3----------|
E|-0--0--3--2--0--2--1--0--0--2--1----------------------|

e|------------------------------------------------------|
B|------------------------------------------------------|
G|------------------------------------------------------|
D|----------------------------------5--4--7--5----------|
A|-2--2--5--4--2--4--3--2--2--4--3--3--2--5--3----------|
E|-0--0--3--2--0--2--1--0--0--2--1----------------------|

PRE-VERSE
e|----------------------------------------------------------------------|
B|----------------------------------------------------------------------|
G|----------------------------------------------------------------------|
D|--9------------------9--------------------9--------------------9------|
A|--7------------------7--------------------7--------------------7------|
E|----------------------------------------------------------------------|

e|------------------------------------------------------|
B|------------------------------------------------------|
G|------------------------------------------------------|
D|------------------------------------------------------|
A|-2--2--2--2--2--2--2--2-------------------------------|
E|-0--0--0--0--0--0--0--0-------------------------------|

VERSE:
e|------------------------------------------------------|
B|------------------------------------------------------|
G|------------------------------------------------------|
D|----------------------------------5--4--7--5----------|
A|-2--2--5--4--2--4--3--2--2--4--3--3--2--5--3----------|
E|-0--0--3--2--0--2--1--0--0--2--1----------------------|

e|------------------------------------------------------|
B|------------------------------------------------------|
G|------------------------------------------------------|
D|----------------------------------5--4--7--5----------|
A|-2--2--5--4--2--4--3--2--2--4--3--3--2--5--3----------|
E|-0--0--3--2--0--2--1--0--0--2--1----------------------|

e|------------------------------------------------------|
B|------------------------------------------------------|
G|------------------------------------------------------|
D|----------------------------------5--4--7--5----------|
A|-2--2--5--4--2--4--3--2--2--4--3--3--2--5--3----------|
E|-0--0--3--2--0--2--1--0--0--2--1----------------------|

e|------------------------------------------------------|
B|------------------------------------------------------|
G|------------------------------------------------------|
D|----------------------------------5--4--7--5----------|
A|-2--2--5--4--2--4--3--2--2--4--3--3--2--5--3----------|
E|-0--0--3--2--0--2--1--0--0--2--1----------------------|

PRE-CHORUS:
e|-------------------------------------------------------------|
B|-------------------------------------------------------------|
G|-------------------------------------------------------------|
D|--2-0--4-0--5-0---7-0---------2-0--4-0--5-0--7-0-------------|
A|--0p0--2p0--3p0---5p0--5h7h5--0p0--2p0--3p0--5p0--5h7h5------|
E|-------------------------------------------------------------|


e|------------------------------------------------------|
B|------------------------------------------------------|
G|------------------------------------------------------|
D|-2-0--4-0--5-0----------------------------------------|
A|-0p0--2p0--3p0--2--2--2--2--2--5--7--5----------------|
E|----------------0--0--0--0--0--3--5--3----------------|

CHORUS:
e|------------------------------------------------------|
B|------------------------------------------------------|
G|------------------------------------------------------|
D|------------------------------------------------------|
A|-9--7--5--9--7--5--2--5--2--9--7--5--9--7-------------|
E|-7--5--3--7--5--3--0--3--0--7--5--3--7--5-------------|

e|------------------------------------------------------|
B|------------------------------------------------------|
G|------------------------------------------------------|
D|------------------------------------------------------|
A|-9--7--5--9--7--5--2--5--2--9--7--5--9--7-------------|
E|-7--5--3--7--5--3--0--3--0--7--5--3--7--5-------------|

1st SOLO:
e|-16b------------17-----------------------14b----------|
B|-18b--19h17h16------17h15---------15h13--16b----------|
G|-17b-----------------------15h13---------15b----------|
D|----------------------------------------------16------|
A|------------------------------------------------------|
E|------------------------------------------------------|

e|------------------------------------------------------|
B|----------------------------16------------------------|
G|-------------------16h17h19------19h17h16-------------|
D|-16h17h19-16h17h19-------------------------19h17h16---|
A|------------------------------------------------------|
E|------------------------------------------------------|

e|------------------------------------------------------|
B|------------------------------------------------------|
G|------------------------------------------------------|
D|-19h17h16-13------------------------------------------|
A|-------------16h14h13-16h14h13-----------13h14h16-----|
E|-------------------------------16h14h13---------------|

e|-----------------------------13h14h16-16b-------------|
B|--------------------13h14h16--------------------------|
G|----------13h14h16-------------------------20h18h17---|
D|-13h14h16---------------------------------------------|
A|------------------------------------------------------|
E|------------------------------------------------------|

e|-----------15h13h12--------------------------------------------------|
B|-17h15h14------------15h13h12----------------------------------------|
G|-------------------------------15h13h12------------------------------|
D|----------------------------------------15h13h12---------------------|
A|--------------------------------------------------15h13h12-----------|
E|-----------------------------------------------------------15h13h12--|

e|-----------------------------------------|
B|-----------------------------------------|
G|-----------------------------------------|
D|----------------------13-12--------------|
A|---12--12h15-15h13h12--------13-12-------|
E|-----------------------------------------|

e|------------------------------------------------------------|
B|------------------------------------------------------------|
G|------------------------------------------------------------|
D|-----------------13-12----------------------13-12-----------|
A|-12h15-15h13h12--------13-12-12h15-15h13h12-------13-12-12--|
E|------------------------------------------------------------|

e|------------------------------------------------------|
B|------------------------------------------------------|
G|--------------15--------------------------------------|
D|-15b-15h16h18----15h16h18-15h16h18-15h16h18-----------|
A|--------------------------------------------15h16h18--|
E|------------------------------------------------------|

e|--------------------------------------------------------|
B|--------------------------------------------------------|
G|--------------------------------------------------------|
D|--------------------------------------------------------|
A|-15h16h18-15h16h18----------------------------15h16h18--|
E|-------------------15h16h18-15h16h18-15h16h18-----------|

e|--------------------------------------------------------|
B|--------------------------------------------------------|
G|----------------------------------------------15h16h18--|
D|-------------------15h16h18-15h16h18-15h16h18-----------|
A|-15h16h18-15h16h18--------------------------------------|
E|--------------------------------------------------------|

e|------------------------------------------------------|
B|------------------------------------------------------|
G|-15h16h18-15h16h18------------------------------------|
D|-------------------15---------------------------------|
A|------------------------------------------------------|
E|------------------------------------------------------| 

1st SOLO BACKING:
e|------------------------------------------------------|
B|------------------------------------------------------|
G|------------------------------------------------------|
D|----------------------------------5--4--7--5----------|
A|-2--2--5--4--2--4--3--2--2--4--3--3--2--5--3----------|
E|-0--0--3--2--0--2--1--0--0--2--1----------------------|

e|------------------------------------------------------|
B|------------------------------------------------------|
G|------------------------------------------------------|
D|----------------------------------5--4--7--5----------|
A|-2--2--5--4--2--4--3--2--2--4--3--3--2--5--3----------|
E|-0--0--3--2--0--2--1--0--0--2--1----------------------|

e|------------------------------------------------------|
B|------------------------------------------------------|
G|------------------------------------------------------|
D|----------------------------------5--4--7--5----------|
A|-2--2--5--4--2--4--3--2--2--4--3--3--2--5--3----------|
E|-0--0--3--2--0--2--1--0--0--2--1----------------------|

e|------------------------------------------------------|
B|------------------------------------------------------|
G|------------------------------------------------------|
D|----------------------------------5--4--7--5----------|
A|-2--2--5--4--2--4--3--2--2--4--3--3--2--5--3----------|
E|-0--0--3--2--0--2--1--0--0--2--1----------------------|

e|------------------------------------------------------|
B|------------------------------------------------------|
G|------------------------------------------------------|
D|----------------------------------5--4--7--5----------|
A|-2--2--5--4--2--4--3--2--2--4--3--3--2--5--3----------|
E|-0--0--3--2--0--2--1--0--0--2--1----------------------|

e|-------------------------------------------------------------|
B|-------------------------------------------------------------|
G|-------------------------------------------------------------|
D|--2-0--4-0--5-0---7-0---------2-0--4-0--5-0--7-0-------------|
A|--0p0--2p0--3p0---5p0--5h7h5--0p0--2p0--3p0--5p0--5h7h5------|
E|-------------------------------------------------------------|


e|------------------------------------------------------|
B|------------------------------------------------------|
G|------------------------------------------------------|
D|-2-0--4-0--5-0----------------------------------------|
A|-0p0--2p0--3p0--2--2--2--2--2--5--7--5----------------|
E|----------------0--0--0--0--0--3--5--3----------------|

e|-------------------------------------------------------------|
B|-------------------------------------------------------------|
G|-------------------------------------------------------------|
D|--2-0--4-0--5-0---7-0---------2-0--4-0--5-0--7-0-------------|
A|--0p0--2p0--3p0---5p0--5h7h5--0p0--2p0--3p0--5p0--5h7h5------|
E|-------------------------------------------------------------|


e|------------------------------------------------------|
B|------------------------------------------------------|
G|------------------------------------------------------|
D|-2-0--4-0--5-0----------------------------------------|
A|-0p0--2p0--3p0--2--2--2--2--2--5--7--5----------------|
E|----------------0--0--0--0--0--3--5--3----------------|

e|-------------------------------------------------------------|
B|-------------------------------------------------------------|
G|-------------------------------------------------------------|
D|--2-0--4-0--5-0---7-0---------2-0--4-0--5-0--7-0-------------|
A|--0p0--2p0--3p0---5p0--5h7h5--0p0--2p0--3p0--5p0--5h7h5------|
E|-------------------------------------------------------------|


e|------------------------------------------------------|
B|------------------------------------------------------|
G|------------------------------------------------------|
D|-2-0--4-0--5-0----------------------------------------|
A|-0p0--2p0--3p0--2--2--2--2--2--5--7--5----------------|
E|----------------0--0--0--0--0--3--5--3----------------|

e|-------------------------------------------------------------|
B|-------------------------------------------------------------|
G|-------------------------------------------------------------|
D|--2-0--4-0--5-0---7-0---------2-0--4-0--5-0--7-0-------------|
A|--0p0--2p0--3p0---5p0--5h7h5--0p0--2p0--3p0--5p0--5h7h5------|
E|-------------------------------------------------------------|


e|------------------------------------------------------|
B|------------------------------------------------------|
G|------------------------------------------------------|
D|-2-0--4-0--5-0----------------------------------------|
A|-0p0--2p0--3p0--2--2--2--2--2--5--7--5----------------|
E|----------------0--0--0--0--0--3--5--3----------------|

e|-------------------------------------------------------------|
B|-------------------------------------------------------------|
G|-------------------------------------------------------------|
D|--2-0--4-0--5-0---7-0---------2-0--4-0--5-0--7-0-------------|
A|--0p0--2p0--3p0---5p0--5h7h5--0p0--2p0--3p0--5p0--5h7h5------|
E|-------------------------------------------------------------|


e|------------------------------------------------------|
B|------------------------------------------------------|
G|------------------------------------------------------|
D|-2-0--4-0--5-0----------------------------------------|
A|-0p0--2p0--3p0--2--2--2--2--2--5--7--5----------------|
E|----------------0--0--0--0--0--3--5--3----------------|

e|-------------------------------------------------------------|
B|-------------------------------------------------------------|
G|-------------------------------------------------------------|
D|--2-0--4-0--5-0---7-0---------2-0--4-0--5-0--7-0-------------|
A|--0p0--2p0--3p0---5p0--5h7h5--0p0--2p0--3p0--5p0--5h7h5------|
E|-------------------------------------------------------------|


e|------------------------------------------------------|
B|------------------------------------------------------|
G|------------------------------------------------------|
D|-2-0--4-0--5-0----------------------------------------|
A|-0p0--2p0--3p0--2--2--2--2--2--5--7--5----------------|
E|----------------0--0--0--0--0--3--5--3----------------|

BREAK/CHORUS:
e|------------------------------------------------------|
B|------------------------------------------------------|
G|------------------------------------------------------|
D|------------------------------------------------------|
A|-9--7--5--9--7--5--2--5--2--9--7--5--9--7-------------|
E|-7--5--3--7--5--3--0--3--0--7--5--3--7--5-------------|

e|------------------------------------------------------|
B|------------------------------------------------------|
G|------------------------------------------------------|
D|------------------------------------------------------|
A|-9--7--5--9--7--5--2--5--2--9--7--5--9--7-------------|
E|-7--5--3--7--5--3--0--3--0--7--5--3--7--5-------------|

2nd SOLO:
e|------------------------------------------------------|
B|------------------------------------------------------|
G|----------14b-14b-14-12-12b-12h14h12----14-12-15-12---|
D|-14h15h17----------------------------12---------------|
A|------------------------------------------------------|
E|------------------------------------------------------|

e|------------------------------------------------------|
B|-------------------12b-12----15b-15-13-12-------------|
G|-12-------15-13-12------------------------12-15h13h12-|
D|----15-14-----------------14--------------------------|
A|------------------------------------------------------|
E|------------------------------------------------------|

e|--------------------------------------------------------------|
B|-------------15h13h12-----------------------------------------|
G|-12-15h13h12----------15h13h12--------------------------------|
D|-------------------------------15h13h12-----------------------|
A|----------------------------------------15h13h12--------------|
E|-------------------------------------------------15h13h12-----|

2nd SOLO BACKING:
e|------------------------------------------------------|
B|------------------------------------------------------|
G|------------------------------------------------------|
D|------------------------------------------------------|
A|-9--7--5--9--7--5--2--5--2--9--7--5--9--7-------------|
E|-7--5--3--7--5--3--0--3--0--7--5--3--7--5-------------|

e|------------------------------------------------------|
B|------------------------------------------------------|
G|------------------------------------------------------|
D|------------------------------------------------------|
A|-9--7--5--9--7--5--2--5--2--9--7--5--9--7-------------|
E|-7--5--3--7--5--3--0--3--0--7--5--3--7--5-------------|


e|------------------------------------------------------|
B|------------------------------------------------------|
G|------------------------------------------------------|
D|------------------------------------------------------|
A|-9--7--5--9--7--5--2--5--2--9--7--5--9--7-------------|
E|-7--5--3--7--5--3--0--3--0--7--5--3--7--5-------------|

INTERLUDE:
e|------------------------------------------------------|
B|------------------------------------------------------|
G|------------------------------------------------------|
D|----------------------------------5--4--7--5----------|
A|-2--2--5--4--2--4--3--2--2--4--3--3--2--5--3----------|
E|-0--0--3--2--0--2--1--0--0--2--1----------------------|

e|------------------------------------------------------|
B|------------------------------------------------------|
G|------------------------------------------------------|
D|----------------------------------5--4--7--5----------|
A|-2--2--5--4--2--4--3--2--2--4--3--3--2--5--3----------|
E|-0--0--3--2--0--2--1--0--0--2--1----------------------|

e|------------------------------------------------------|
B|------------------------------------------------------|
G|------------------------------------------------------|
D|----------------------------------5--4--7--5----------|
A|-2--2--5--4--2--4--3--2--2--4--3--3--2--5--3----------|
E|-0--0--3--2--0--2--1--0--0--2--1----------------------|

e|------------------------------------------------------|
B|------------------------------------------------------|
G|------------------------------------------------------|
D|----------------------------------5--4--7--5----------|
A|-2--2--5--4--2--4--3--2--2--4--3--3--2--5--3----------|
E|-0--0--3--2--0--2--1--0--0--2--1----------------------|

OUTRO:
e|----------------------------------------------------------------------|
B|----------------------------------------------------------------------|
G|----------------------------------------------------------------------|
D|--9------------------9--------------------9--------------------9------|
A|--7------------------7--------------------7--------------------7------|
E|----------------------------------------------------------------------|

e|------------------------------------------------------|
B|------------------------------------------------------|
G|------------------------------------------------------|
D|------------------------------------------------------|
A|-4--3--2--2-------------------------------------------|
E|----------0-------------------------------------------| (Play this part Slowly).

Used Tab Symbols
_____________________
 h  = Hammer On
 p  = Pull Off
 ~  = Sustain
 v  = Vibrato
 w  = Wide Vibrato
 b  = Bend Up
 hb = Bend Halfway
 /  = Slide Up
 \  = Slide Down
 *  = Trill
 x  = Muted Note
 H  = Harmonic
 t  = Right Hand Tap
 :  = Let Ring
_____________________
Добавлено: 12.10.2013
Вам также может быть интересно:
Другие материалы по этой песне:
  • Аккорды и текст

Страница создана 12.10.2013
http://primanota.ru/eternal-decision/turn-chords.htm
Привет, Гость.
Предлагаем пройти революционный курс по гитаре.
Подарок от PrimaNota.Ru, забирай!