PrimaNota.ru - самый крупный в мире бесплатный архив песенных текстов, аккордов, табулатур и нот


Eternal Decision - Overflow - таба, видео

Регистрация Запомнить меня
Войти через:  Facebook Google Twitter Vk Yandex Mail.ru

Eternal Decision - Overflow - таба, видео

Печатать
Просмотров: 152
enternal decision overflow G-tab tuning DROP-D

/\ slides
pm. palm mute
~~ let note ring out

intro
E-----------------------------------------------------------------------|
B-----------------------------------------------------------------------|
G-----------------------------------------------------------------------|
D----3/2-----3/2-----3/2-----3-3-3-3---3/2-----3/2-----3/2-----1-1-1-1--|
A----3/2-----3/2-----3/2-----3-3-3-3---3/2-----3/2-----3/2-----1-1-1-1--|
D--0-3/2-0-0-3/2-0-0-3/2-0-0-3-3-3-3-0-3/2-0-0-3/2-0-0-3/2-0-0-1-1-1-1--| x2
pm .     . .     . .     . . . . . . .     . .     . .     . . . . . .

riff 1
E---------------------------------------------------------------|
B---------------------------------------------------------------|
G---------------------------------------------------------------|
D------2-----2---2-----2-----2---2-----3-----3---3-----3---5\3--|
A------2-----2---2-----2-----2---2-----3-----3---3-----3---5\3--|
D--2-2-2-2-2-2-2-2-2-2-2-2-2-2-2-2/3-3-3-3-3-3-3-3-3-3-3-3-5\3--| x4
pm . .   . .   .   . .   . .   .   . .   . .   .   . .   .

chorus
E----------------------------------------------------------|
B----------------------------------------------------------|
G----------------------------------------------------------|
D--7-----9-----3-----12-12-12-12--7-----9-----3-----3-2-0--|
A--7-----9-----3-----12-12-12-12--7-----9-----3-----3-2-0--|
D--7-0-0-9-0-0-3-0-0-12-12-12-12--7-0-0-9-0-0-3-0-0-3-2-0--| x1
pm   . .   . .   . .                . .   . .   . . . . .

E-----------------------------------------------------------|
B-----------------------------------------------------------|
G-----------------------------------------------------------|
D--7-----9-----10-----12-12-12-12--7-----9-----3-----3-2-0--|
A--7-----9-----10-----12-12-12-12--7-----9-----3-----3-2-0--|
D--7-0-0-9-0-0-10-0-0-12-12-12-12--7-0-0-9-0-0-3-0-0-3-2-0--| x1
pm   . .   . .    . .                . .   . .   . . . . .
 
intro
E----------------------------------------------------------------------|
B----------------------------------------------------------------------|
G----------------------------------------------------------------------|
D---3/2-----3/2-----3/2-----3-3-3-3---3/2-----3/2-----3/2-----1-1-1-1--|
A---3/2-----3/2-----3/2-----3-3-3-3---3/2-----3/2-----3/2-----1-1-1-1--|
D---3/2-0-0-3/2-0-0-3/2-0-0-3-3-3-3-0-3/2-0-0-3/2-0-0-3/2-0-0-1-1-1-1--| x2
pm      . .     . .     . . . . . . .     . .     . .     . . . . . .

riff 1
E---------------------------------------------------------------|
B---------------------------------------------------------------|
G---------------------------------------------------------------|
D------2-----2---2-----2-----2---2-----3-----3---3-----3---5\3--|
A------2-----2---2-----2-----2---2-----3-----3---3-----3---5\3--|
D--2-2-2-2-2-2-2-2-2-2-2-2-2-2-2-2/3-3-3-3-3-3-3-3-3-3-3-3-5\3--| x4
pm . .   . .   .   . .   . .   .   . .   . .   .   . .   .

chorus
E----------------------------------------------------------|
B----------------------------------------------------------|
G----------------------------------------------------------|
D--7-----9-----3-----12-12-12-12--7-----9-----3-----3-2-0--|
A--7-----9-----3-----12-12-12-12--7-----9-----3-----3-2-0--|
D--7-0-0-9-0-0-3-0-0-12-12-12-12--7-0-0-9-0-0-3-0-0-3-2-0--| x1
pm   . .   . .   . .                . .   . .   . . . . .

E-----------------------------------------------------------|
B-----------------------------------------------------------|
G-----------------------------------------------------------|
D--7-----9-----10-----12-12-12-12--7-----9-----3-----3-2-0--|
A--7-----9-----10-----12-12-12-12--7-----9-----3-----3-2-0--|
D--7-0-0-9-0-0-10-0-0-12-12-12-12--7-0-0-9-0-0-3-0-0-3-2-0--| x1
pm   . .   . .    . .                . .   . .   . . . . .
 
intro
E----------------------------------------------------------------------|
B----------------------------------------------------------------------|
G----------------------------------------------------------------------|
D---3/2-----3/2-----3/2-----3-3-3-3---3/2-----3/2-----3/2-----1-1-1-1--|
A---3/2-----3/2-----3/2-----3-3-3-3---3/2-----3/2-----3/2-----1-1-1-1--|
D---3/2-0-0-3/2-0-0-3/2-0-0-3-3-3-3-0-3/2-0-0-3/2-0-0-3/2-0-0-1-1-1-1--| x2
pm      . .     . .     . . . . . . .     . .     . .     . . . . . .

riff 1
E---------------------------------------------------------------|
B---------------------------------------------------------------|
G---------------------------------------------------------------|
D------2-----2---2-----2-----2---2-----3-----3---3-----3---5\3--|
A------2-----2---2-----2-----2---2-----3-----3---3-----3---5\3--|
D--2-2-2-2-2-2-2-2-2-2-2-2-2-2-2-2/3-3-3-3-3-3-3-3-3-3-3-3-5\3--| x4
pm . .   . .   .   . .   . .   .   . .   . .   .   . .   .

chorus
E----------------------------------------------------------|
B----------------------------------------------------------|
G----------------------------------------------------------|
D--7-----9-----3-----12-12-12-12--7-----9-----3-----3-2-0--|
A--7-----9-----3-----12-12-12-12--7-----9-----3-----3-2-0--|
D--7-0-0-9-0-0-3-0-0-12-12-12-12--7-0-0-9-0-0-3-0-0-3-2-0--| x1
pm   . .   . .   . .                . .   . .   . . . . .

E-----------------------------------------------------------|
B-----------------------------------------------------------|
G-----------------------------------------------------------|
D--7-----9-----10-----12-12-12-12--7-----9-----3-----3-2-0--|
A--7-----9-----10-----12-12-12-12--7-----9-----3-----3-2-0--|
D--7-0-0-9-0-0-10-0-0-12-12-12-12--7-0-0-9-0-0-3-0-0-3-2-0--| x1
pm   . .   . .    . .                . .   . .   . . . . .

playt by one guitar with no bass in his distortion
E--------------------------------------------------------------|
B--------------------------------------------------------------|
G--------------------------------------------------------------|
D---3/2-----3/2-----3/2-----3-3-3-3---3/2-----3/2-----3/2------|
A---3/2-----3/2-----3/2-----3-3-3-3---3/2-----3/2-----3/2------|
D---3/2-0-0-3/2-0-0-3/2-0-0-3-3-3-3-0-3/2-0-0-3/2-0-0-3/2-0-0--| x1
pm      . .     . .     . . . . . . .     . .     . .     . .

E--------------------------------------------------------------------------|
B--------------------------------------------------------------------------|
G--------------------------------------------------------------------------|
D-1--1--3/2-----3/2-----3/2-----3-3-3-3---3/2-----3/2-----3/2-----1-1-1-1--|
A-1--1--3/2-----3/2-----3/2-----3-3-3-3---3/2-----3/2-----3/2-----1-1-1-1--|
D-1--1--3/2-0-0-3/2-0-0-3/2-0-0-3-3-3-3-0-3/2-0-0-3/2-0-0-3/2-0-0-1-1-1-1--|
pm          . .     . .     . . . . . . .     . .     . .     . . . . . . x1

bridge
E-------------------------|
B-------------------------|
G-------------------------|
D--2-----2-----2-----3\1--|
A--2-----2-----2-----3\1--|
D--2-2-2-2-2-2-2-2-2-3\1--| x4
pm   . .   . .   . .

solo rythem riff
E-----------------------------|
B-----------------------------|
G-----------------------------|
D--7-----7-----7-----7---8\6--|
A--7-----7-----7-----7---8\6--|
D--7-7-7-7-7-7-7-7-7-7-7-8\6--| x1
pm   . .   . .   . .   .

E-----------------------------|
B-----------------------------|
G-----------------------------|
D--2-----2-----2-----2---3\1--|
A--2-----2-----2-----2---3\1--|
D--2-2-2-2-2-2-2-2-2-2-2-3\1--| x1
pm   . .   . .   . .   .

E-----------------------------|
B-----------------------------|
G-----------------------------|
D--7-----7-----7-----7---8\6--|
A--7-----7-----7-----7---8\6--|
D--7-7-7-7-7-7-7-7-7-7-7-8\6--| x1
pm   . .   . .   . .   .

E-----------------------------|
B-----------------------------|
G-----------------------------|
D--2-----2-----2-----2---3\1--|
A--2-----2-----2-----2---3\1--|
D--2-2-2-2-2-2-2-2-2-2-2-3\1--| x1
pm   . .   . .   . .   .

chorus
E----------------------------------------------------------|
B----------------------------------------------------------|
G----------------------------------------------------------|
D--7-----9-----3-----12-12-12-12--7-----9-----3-----3-2-0--|
A--7-----9-----3-----12-12-12-12--7-----9-----3-----3-2-0--|
D--7-0-0-9-0-0-3-0-0-12-12-12-12--7-0-0-9-0-0-3-0-0-3-2-0--| x1
pm   . .   . .   . .                . .   . .   . . . . .

E-----------------------------------------------------------|
B-----------------------------------------------------------|
G-----------------------------------------------------------|
D--7-----9-----10-----12-12-12-12--7-----9-----3-----3-2-0--|
A--7-----9-----10-----12-12-12-12--7-----9-----3-----3-2-0--|
D--7-0-0-9-0-0-10-0-0-12-12-12-12--7-0-0-9-0-0-3-0-0-3-2-0--| x1
pm   . .   . .    . .                . .   . .   . . . . .


chorus
E----------------------------------------------------------|
B----------------------------------------------------------|
G----------------------------------------------------------|
D--7-----9-----3-----12-12-12-12--7-----9-----3-----3-2-0--|
A--7-----9-----3-----12-12-12-12--7-----9-----3-----3-2-0--|
D--7-0-0-9-0-0-3-0-0-12-12-12-12--7-0-0-9-0-0-3-0-0-3-2-0--| x1
pm   . .   . .   . .                . .   . .   . . . . .

E-----------------------------------------------------------|
B-----------------------------------------------------------|
G-----------------------------------------------------------|
D--7-----9-----10-----12-12-12-12--7-----9-----3-----3-2-0--|
A--7-----9-----10-----12-12-12-12--7-----9-----3-----3-2-0--|
D--7-0-0-9-0-0-10-0-0-12-12-12-12--7-0-0-9-0-0-3-0-0-3-2-0--| x1
pm   . .   . .    . .                . .   . .   . . . . .

intro
E----------------------------------------------------------------------|
B----------------------------------------------------------------------|
G----------------------------------------------------------------------|
D---3/2-----3/2-----3/2-----3-3-3-3---3/2-----3/2-----3/2-----1-1-1-1--|
A---3/2-----3/2-----3/2-----3-3-3-3---3/2-----3/2-----3/2-----1-1-1-1--|
D---3/2-0-0-3/2-0-0-3/2-0-0-3-3-3-3-0-3/2-0-0-3/2-0-0-3/2-0-0-1-1-1-1--| x4
pm      . .     . .     . . . . . . .     . .     . .     . . . . . .

outro
E------------|
B------------|
G------------|
D--1~~~~--2--|
A--1~~~~--2--|
D--1~~~~2-2--| x1
pm      .
Добавлено: 28.05.2012
Другие материалы по этой песне:
  • Аккорды и текст

Страница создана 28.05.2012
http://primanota.ru/eternal-decision/overflow-chords.htm
Привет, Гость.
Предлагаем пройти революционный курс по гитаре.
Подарок от PrimaNota.Ru, забирай!