PrimaNota.ru - самый крупный в мире бесплатный архив песенных текстов, аккордов, табулатур и нот


Eternal Decision - No Grip - таба, видео

Регистрация Запомнить меня
Войти через:  Facebook Google Twitter Vk Yandex Mail.ru

Eternal Decision - No Grip - таба, видео

Печатать
Просмотров: 103
you'll have to listen to the song for timing and rhythm. i am quite sure the bridge is 
100% but sounds close to me.

intro/verse

guitar I
D|----------------|
A|----------------|
F|----------------|x4
C|----------------|
G|----------------|
D|---0h2--2-2-----|

guitar II after 4th time
D|----------------------------------------------|
A|----------------------------------------------|
F|----------------------------------------------|
C|---2-4--4--4--4----2-4---4--4--4/5------------|
G|---2-4--4--4--4----2-4---4--4--4/5------------|
D|---0h2--2--2--2----0h2---2--2--2/3------------|

guitar I

so pervasive your mission....
D|----------------|
A|----------------|
F|----------------|x12
C|----------------|
G|----------------|
D|---0h2--2-2-----|

guitar II after 12th time
D|----------------------------------------------|
A|----------------------------------------------|
F|----------------------------------------------|
C|---2-4--4--4--4----2-4---4--4--4/5------------|
G|---2-4--4--4--4----2-4---4--4--4/5------------|
D|---0h2--2--2--2----0h2---2--2--2/3------------|

chorus
   you  can  have no grip on    me
D|------------------------------------------------------|
A|------------------------------------------------------|
F|------------------------------------------------------|
C|----4---2---4---2---4---2-----4---2---4---2---4/5-----|
G|----4---2---4---2---4---2-----4---2---4---2---4/3-----|
D|----2---0---2---0---2---0-----2---0---2---0---2/3-----|

   you can have no grip on    me
D|------------------------------------------------------|
A|------------------------------------------------------|
F|------------------------------------------------------|x2
C|----4---2---4---2---4/5-------4---2---4---2---4/5-----|
G|----4---2---4---2---4/5-------4---2---4---2---4/3-----|
D|----2---0---2---0---2/3-------2---0---2---0---2/3-----|

verse 2 same as verse 1

chorus

 post chorus
  no grip on me, no grip on me......
D|-------------------------------------|
A|-------------------------------------|
F|---11---12---11----12---11----12-----|x4
C|---11---12---11----12---11----12-----|
G|----9---10----9----10----9----10-----|
D|-------------------------------------|


bridge

part A
guitar I
D|--------------------------|
A|--------------------------|
F|--------------------------|
C|--------------9-----------|
G|--------9---------9-------|
D|----7------7----------7---|

guitar II
holds as guitar I is playing notes
D|------|
A|------|
F|--9---|
C|--9---|
G|--7---|
D|------|

guitar I
D|--------------------------|
A|--------------------------|
F|--------------------------|
C|--------------9-----------|
G|--------9---------9-------|
D|----7------7----------7---|

guitar II
D|--------|
A|--------|
F|--7-----|
C|--7-----|
G|--5-----|
D|--------|

guitar I
D|--------------------------|
A|--------------------------|
F|--------------------------|
C|--------------9-----------|
G|--------9---------9-------|
D|----7------7----------7---|

guitar II
D|-----------------|
A|-----------------|
F|--5--------------| repeat part A 2x
C|--5--------------|
G|--3--------------|
D|-----------------|

part B

guitar I
D|-------------------|
A|-------------------|
F|-------------------|
C|---------------9---|
G|---------9---------|
D|---/7~~-----7------|

D|-------------------|
A|-------------------|
F|-------------------|
C|--------------7----|
G|--------7----------|
D|--/5~~-----5-------|

D|-------------------|
A|-------------------|
F|-------------------|
C|--------------5----| repeat part B 2x
G|--------5----------|
D|--/3~~-----3-------|

part C

guitar I
D|---------------------------------|
A|---------------------------------|
F|---------------------------------|
C|---------------9------9----------|
G|---------9----------------9------|
D|---/7~~-----7------7-------------|

guitar II
holds as guitar I is playing notes
D|-------|
A|-------|
F|--9----|
C|--9----|
G|--7----|
D|-------|

guitar I
D|---------------------------------|
A|---------------------------------|
F|---------------------------------|
C|--------------7-----7------------|
G|--------7--------------7---------|
D|--/5~~-----5-----5---------------|

guitar II
D|--------|
A|--------|
F|--7-----|
C|--7-----|
G|--5-----|
D|--------|

guitar I
D|---------------------------------|
A|---------------------------------|
F|---------------------------------|
C|--------------5-----5------------|
G|--------5--------------5---------|
D|--/3~~-----3-----3---------------|

guitar II
D|--------|
A|--------|
F|--5-----|
C|--5-----|
G|--3-----|
D|--------|

part D
guitar I
D|-------------------------------|
A|-------------------------------|
F|-------------------------------|
C|-------------9-----9-----------|
G|-------9--------------9--------|
D|----7-----7-----7--------7-----|

guitar II
holds as guitar I is playing notes
D|------|
A|------|
F|--9---|
C|--9---|
G|--7---|
D|------|

guitar I
D|------------------------------|
A|------------------------------|
F|------------------------------|
C|-----------7-----7------------|
G|-----7--------------7---------|
D|--5-----5-----5--------5------|

guitar II
D|--------|
A|--------|
F|--7-----|
C|--7-----|
G|--5-----|
D|--------|

both guitars
D|-------------------------------------------|
A|-------------------------------------------|
F|---11---12---11----12---11----12-12-12-12--|
C|---11---12---11----12---11----12-12-12-12--|
G|----9---10----9----10----9----10-10-10-10--|
D|-------------------------------------------|

D|----------------------|
A|----------------------|
F|---11---12---11----9--|
C|---11---12---11----9--|
G|----9---10----9----7--|
D|----------------------|

part E

D|---------------------------------------------|
A|---------------------------------------------|
F|---------------------------------------------|x2
C|---x-x---x--x---x-x---x-x---x--x--x--x-x--x--|
G|---x-x---x--x---x-x---x-x---x--x--x--x-x--x--|
D|---x-x---x--x---x-x---x-x---x--x--x--x-x--x--|

chorus
post chorus

outro

guitar I
D|----------------|
A|----------------|
F|----------------|x4
C|----------------|
G|----------------|
D|---0h2--2-2-----|

guitar II after 4th time
D|----------------------------------------------|
A|----------------------------------------------|
F|----------------------------------------------|
C|---2-4--4--4--4----2-4---4--4--4/5\-----------|
G|---2-4--4--4--4----2-4---4--4--4/5\-----------|
D|---0h2--2--2--2----0h2---2--2--2/3\-----------|


duration legend
h = hammeron
/ = slide
\ = slide back
~ = vibrato
x = palm mute open
Добавлено: 12.07.2012
Другие материалы по этой песне:
  • Аккорды и текст

Страница создана 12.07.2012
http://primanota.ru/eternal-decision/no-grip-chords.htm
Привет, Гость.
Предлагаем пройти революционный курс по гитаре.
Подарок от PrimaNota.Ru, забирай!