PrimaNota.ru - самый крупный в мире бесплатный архив песенных текстов, аккордов, табулатур и нот


Eternal Decision - Ghost In The Machine - таба, видео

Регистрация Запомнить меня
Войти через:  Facebook Google Twitter Vk Yandex Mail.ru

Eternal Decision - Ghost In The Machine - таба, видео

Печатать
Просмотров: 100
Уроки эстрадного вокала в Санкт-Петербурге
i'm giving this a try feel free to comment or correct me on any of my tabs
 i am all in for extra help. 
and listen to the song for rhythm and timing.


verse 
D|----------|
A|----------|
F|----------|
C|---2-3-5--|
G|---2-3-5--|
D|---0-1-3--|

chorus
D|-------------------------------------|
A|-------------------------------------|
F|-------------------------------------|
C|---2-2---2-2--2/8----2-2---2--2/8----|x5
G|---2-2---2-2--2/8----2-2---2--2/8----|
D|---0-0---0-0--0/6----0-0---0--0/6----|

D|------------------|
A|------------------|
F|------------------|
C|--2-2---3/5/7--8--|x3
G|--2-2---3/5/7--8--|
D|--0-0---1/3/5--6--|

then
D|-----------|
A|-----------|
F|-----------|
C|--2-2-3-2--|
G|--2-2-3-2--|
D|--0-0-1-0--|

verse 2

chorus 2
D|-------------------------------------|
A|-------------------------------------|
F|-------------------------------------|
C|---2-2---2-2--2/8----2-2---2--2/8----|x5
G|---2-2---2-2--2/8----2-2---2--2/8----|
D|---0-0---0-0--0/6----0-0---0--0/6----|

D|-----|                         
A|-----|                         
F|-----|                        
C|--2--| hold               
G|--2--|                             
D|--0--|                           

  breakdown
D|------|
A|------|
F|------| slide to next part
C|------|
G|------|
D|--12\-|

then this part 2x
D|-------------------------------|
A|-------------------------------|
F|-------------------------------|
C|--2/3--x-x-x--8---2/3--x-x--7--| 
G|--2/3--x-x-x--8---2/3--x-x--7--|
D|--0/1--x-x-x--6---0/1--x-x--5--|

D|-------------------------------|
A|-------------------------------|
F|-------------------------------|
C|--2/3--x-x-x--8---2/3--x-x--2--| 
G|--2/3--x-x-x--8---2/3--x-x--2--| 
D|--0/1--x-x-x--6---0/1--x-x--0--|

verse 3

chorus
D|-------------------------------------|
A|-------------------------------------|
F|-------------------------------------|
C|---2-2---2-2--2/8----2-2---2--2/8----|x5
G|---2-2---2-2--2/8----2-2---2--2/8----|
D|---0-0---0-0--0/6----0-0---0--0/6----|

D|------------------|
A|------------------|
F|------------------|
C|--2-2---3/5/7--8--|x3
G|--2-2---3/5/7--8--|
D|--0-0---1/3/5--6--|

outro
D|-----------|
A|-----------|
F|-----------|
C|--2-2-3-2--|
G|--2-2-3-2--|
D|--0-0-1-0--|


duration
/=slide up
\=slide down
x=palm mute


Добавлено: 07.07.2012
Другие материалы по этой песне:
  • Аккорды и текст

Страница создана 07.07.2012
http://primanota.ru/eternal-decision/ghost-in-the-machine-chords.htm
Привет, Гость.
Предлагаем пройти революционный курс по гитаре.
Подарок от PrimaNota.Ru, забирай!