PrimaNota.ru - самый крупный в мире бесплатный архив песенных текстов, аккордов, табулатур и нот


Eternal Decision - Fearless - таба, видео

Регистрация Запомнить меня
Войти через:  Facebook Google Twitter Vk Yandex Mail.ru

Eternal Decision - Fearless - таба, видео

Печатать
Просмотров: 111
this song is sweet and fun to play for the chorus.

guitar I

D|-----------------------------------------------|
A|-----------------------------------------------|   
F|-----------------------------------------------|
C|----8------------------------------------------|x8              
G|---------------10---------8---------7----------|
D|---------0--0-------0--0-----0--0-------0--0---|

guitar II
comes in at 00:10 holds 
D|----------------------|
A|----------------------|
F|----------------------|
C|----------------------|
G|------/7~~------------|
D|----------------------|

leads into chorus at 8th time

D|-------------------|
A|-------------------|
F|-------------------|
C|-------------------|
G|-------------------|
D|-------/12\--------|


chorus
both guitars kick in
D|--------------------------------------| 
A|--------------------------------------|
F|--------------------------------------|
C|----8---x----5---x---3---x----2---x---|x3 
G|----8---x----5---x---3---x----2---x---|
D|----6---x----3---x---1---x----0---x---|
                                    
  on 4th time 
D|-----------------------------------------------| 
A|-----------------------------------------------|
F|-----------------------------------------------|
C|----8---x----5---x---3---x----2---x-x-x--------|
G|----8---x----5---x---3---x----2---x-x-x--------|
D|----6---x----3---x---1---x----0---x-x-x--------|


D|---------------------------------------| 
A|---------------------------------------|
F|---------------------------------------|
C|----8---x----5---x---3---x----2---x----|x3 
G|----8---x----5---x---3---x----2---x----|
D|----6---x----3---x---1---x----0---x----|
                                    
  on 4th time 
D|-----------------------------------------------| 
A|-----------------------------------------------|
F|-----------------------------------------------|
C|----8---x----5---x---3---x----2---x-x-x--------|
G|----8---x----5---x---3---x----2---x-x-x--------|
D|----6---x----3---x---1---x----0---x-x-x--------|


guitar II
holds and fades
D|----------------------|
A|----------------------|
F|----------------------|
C|----------------------|
G|------/7~~-------------|
D|----------------------|

verse 

guitar I

D|-----------------------------------------------|
A|-----------------------------------------------|   
F|-----------------------------------------------|
C|-----8-----------------------------------------|x12              
G|----------------10--------8---------7----------|
D|---------0--0-------0--0-----0--0-------0--0---|

guitar II
leads into chorus at 12th time
D|-------------------|
A|-------------------|
F|-------------------|
C|-------------------|
G|-------------------|
D|-------/12\--------|

chorus
both guitars kick in
D|--------------------------------------| 
A|--------------------------------------|
F|--------------------------------------|
C|----8---x----5---x---3---x----2---x---|x3 
G|----8---x----5---x---3---x----2---x---|
D|----6---x----3---x---1---x----0---x---|
                                    
  on 4th time 
D|-----------------------------------------------| 
A|-----------------------------------------------|
F|-----------------------------------------------|
C|----8---x----5---x---3---x----2---x-x-x--------|
G|----8---x----5---x---3---x----2---x-x-x--------|
D|----6---x----3---x---1---x----0---x-x-x--------|


D|---------------------------------------| 
A|---------------------------------------|
F|---------------------------------------|
C|----8---x----5---x---3---x----2---x----|x3 
G|----8---x----5---x---3---x----2---x----|
D|----6---x----3---x---1---x----0---x----|
                                    
  on 4th time 
D|-----------------------------------------------| 
A|-----------------------------------------------|
F|-----------------------------------------------|
C|----8---x----5---x---3---x----2---x-x-x--------|
G|----8---x----5---x---3---x----2---x-x-x--------|
D|----6---x----3---x---1---x----0---x-x-x--------|

D|--------------------------|
A|--------------------------|
F|--------------------------|
C|----2---2--2--5----5/8----|x16
G|----2---2--2--5----5/8----|
D|----0---0--0--3----3/6----|
          .  .  

guitar II

D|------------
A|------------
F|------------
C|-----2------
G|-----2------
D|-----0------


verse 2 same as verse 1 

chorus

bridge

D|----------------------------------------------------------|
A|---------------------------------------------------------|
F|---------------------------------------------------------|
C|---2----2-2-2-2-2-2---2--3----3----3-3-3--3-3-3----------|
G|---2----2-2-2-2-2-2---2--3----3----3-3-3--3-3-3----------|
D|---0----0-0-0-0-0-0---0--1----1----1-1-1--1-1-1----------|
          . . . . . .                . . .  . . .    
D|----------------------------------------------------------|
A|----------------------------------------------------------|
F|----------------------------------------------------------|
C|---2----2-2-2-2-2-2---5------5/7\5-----3/5\3----2---------|
G|---2----2-2-2-2-2-2---5------5/7\5-----3/5\3----2---------|
D|---0----0-0-0-0-0-0---3------3/5\3-----1/3\1----0---------|


D|----------------------------------------------------------|
A|---------------------------------------------------------|
F|---------------------------------------------------------|
C|---2----2-2-2-2-2-2---2--3----3----3-3-3--3-3-3----------|
G|---2----2-2-2-2-2-2---2--3----3----3-3-3--3-3-3----------|
D|---0----0-0-0-0-0-0---0--1----1----1-1-1--1-1-1----------|
          . . . . . .                . . .  . . .    


D|----------------------------------------------------------|
A|----------------------------------------------------------|
F|----------------------------------------------------------|
C|---2----2-2-2-2-2-2---5--6-----7/8\7-----3/5\3----2---------|
G|---2----2-2-2-2-2-2---5--6-----7/8\7-----3/5\3----2---------|
D|---0----0-0-0-0-0-0---3--8-----5/6\5-----1/3\1----0---------|


verse 3

guitar I

D|-----------------------------------------------|
A|-----------------------------------------------|   
F|-----------------------------------------------|
C|-----8-----------------------------------------|x10              
G|----------------10--------8---------7----------|
D|---------0--0-------0--0-----0--0-------0--0---|

pause at 10th time

(with my dying breath.....)
Go!

chorus


duration legend
. = palm mute
/ = slide
\ = slide back
x = palm mute open strings
~ = vibrato
















Добавлено: 07.06.2012
Другие материалы по этой песне:
  • Аккорды и текст

Страница создана 07.06.2012
http://primanota.ru/eternal-decision/fearless-chords.htm
Привет, Гость.
Предлагаем пройти революционный курс по гитаре.
Подарок от PrimaNota.Ru, забирай!