PrimaNota.ru - самый крупный в мире бесплатный архив песенных текстов, аккордов, табулатур и нот


Estrella - Martyr - аккорды и текст, видео

Регистрация Запомнить меня
Войти через:  Facebook Google Twitter Vk Yandex Mail.ru

Estrella - Martyr - аккорды и текст, видео

Печатать
Просмотров: 81
Martyr
Estrella
Try lang, tabbed by m0nm0nyeah

!IMPORTANT NOTES!
-Standard Tuning: EADGBe
-Gumamit ng power chords hanggat maaari
-Pinasimple ko lang, upload nalang kayo ng mas technical
-Maglalagay din ako ng alam kong part ng bass kung gusto niyo isama sa tugtugan niyo, peace in
-Pakinggan niyo nalang yung mga strumming

Intro:

F#m - G#m - C#m

e|---------------------------------------------------------------------------|
B|---------------------------------------------------------------------------|
G|---------------------------------------------------------------------------|
D|---------------------------------------------------------------------------|
A|------0-h4----6-/-7-/-6-/-4p-0---------------------------------------------|
E|---------------------------------------------------------------------------|

F#m - G#m - C#m

e|---------------------------------------------------------------------------|
B|---------------------------------------------------------------------------|
G|---------------------------------------------------------------------------|
D|---------------------------------------------------------------------------|
A|--4--4--2--2---------------------------------------------------------------|
E|---------------4--4--2--2--------------------------------------------------|

F#m - G#m - C#m

e|---------------------------------------------------------------------------|
B|---------------------------------------------------------------------------|
G|---------------------------------------------------------------------------|
D|---------------------------------------------------------------------------|
A|------0-h4----6-/-7-/-6-/-4------------------------------------------------|
E|---------------------------------------------------------------------------|

F#m - G#m - C#m



Verse 1 :
A                         Ab
Di na maalala mga sandaling
              C#      C#
Na kasama kita
A                         Ab
Sayong piling para ako ay
              C#      C#
Laging magisa

Refrain: (Gumamit kayo ng Octave, root + 8th note)

                     E
e|X------------------------------------------|
B|X------------------------------------------|
G|-------------------9-----------------------|
D|X------------------------------------------|
A|-------------------7-----------------------|
E|X------------------------------------------|

                     F#
e|X------------------------------------------|
B|X------------------------------------------|
G|-------------------11----------------------|
D|X------------------------------------------|
A|-------------------9-----------------------|
E|X------------------------------------------|

                     Eb
e|X------------------------------------------|
B|X------------------------------------------|
G|-------------------8-----------------------|
D|X------------------------------------------|
A|-------------------6-----------------------|
E|X------------------------------------------|

E                     F#
Kahit ano pa ang gawin
              E
Kahit ano pa ang sabihin
      Eb                  E
Tapos na tapos na ko sayo
                      F#
Kahit ano pa ang gawin
                  E
Kahit ano pa ang sabihin
            Eb-E 
Tapos na tapos na



Chorus: (Enjoy to HEHEHE)

A                                Ab          
Ngunit sa twing ika'y nasisilayan
            F#m                    E 
Bumabalik lahat ng aking nararamdaman
A                         Ab   
Ano ba ang dahilan ba't hindi ko malaman
     F#m                  E           A    Ab    
Bakit ako masayang masayang nasasaktan
F#m                    E - E (higher E 7th fret A string)
MARTYR sa pag-ibig mo.



Verse2
A                        Ab
Lahat ng bagay nawalan na ng saysay
            C#                C#
Oras na lamang ang hinihintay
A                         Ab
Nagising na ko sa katotohanan na dapat
       C#                   C#
Ka ng iwasan, dapat ka ng iwasan.



Refrain:

E                     F#
Kahit ano pa ang gawin
              E
Kahit ano pa ang sabihin
      Eb                  E
Tapos na tapos na ko sayo
                      F#
Kahit ano pa ang gawin
                  E
Kahit ano pa ang sabihin
            Eb-E 
Tapos na tapos na



Chorus:

A                                Ab          
Ngunit sa twing ika'y nasisilayan
            F#m                    E 
Bumabalik lahat ng aking nararamdaman
A                         Ab   
Ano ba ang dahilan ba't hindi ko malaman
     F#m                  E           A    Ab    
Bakit ako masayang masayang nasasaktan (ngunit, ngu-ngunit, ngunit, ngu-ngunit)
F#m                    E
MARTYR sa pag-ibig mo
A      Ab
Ohhhhh ohhhhhhh
F#m                   E
Martyr sa pag-ibig mo
A      Ab
Ohhhhh ohhhhhhh (martyr sa pag-ibig mo! martyr sa pag-ibig mo!)
F#m                   E
Martyr sa pag-ibig mo
A      Ab
Ohhhhh ohhhhhhh (martyr sa pag-ibig mo! martyr sa pag-ibig mo!)
F#m                 E - E (higher E 7th fret A string)
Martyr sa pag-ibig mo

------------------------------------------------------------------------------------
pasensya na natuwa ako sa mga second voice eh, hahahaha

sa mga pro diyan, comment niyo lang ang mga corrections niyo para maimprove natin to!

enjoy kung gusto niyo mag enjoy peace OUT!
Добавлено: 02.01.2016
Другие материалы по этой песне:
  • Аккорды и текст

Страница создана 02.01.2016
http://primanota.ru/estrella/martyr-chords.htm
Привет, Гость.
Предлагаем пройти революционный курс по гитаре.
Подарок от PrimaNota.Ru, забирай!