PrimaNota.ru - самый крупный в мире бесплатный архив песенных текстов, аккордов, табулатур и нот


Esteban - Wildwood Flower - таба, видео

Регистрация Запомнить меня
Войти через:  Facebook Google Twitter Vk Yandex Mail.ru

Esteban - Wildwood Flower - таба, видео

Печатать
Просмотров: 125
------------------------------------------------------------------------
                             Wildwood Flower by Esteban
------------------------------------------------------------------------
By: Psquartsoff01

Tuning: Standard (E A D G B E)

E|-------------------------1--------0----------------|
B|-------------------------0--------1----------------|
G|------0—0h2-0------------0—0h2-0--0----------------|
D|----2---—-----2—2h3p2----0--------2----------------|
A|--3----------------------2--------3----------------|
E|-------------------------3-------------------------|x2

E|------0---0-0-0-0-0------0-0-0-0-0----------|
B|------1---1-1-1-1-1--1---1-1-1-1-1----------|
G|---0--0---0-0-0-0-0--0---2-2-2-2-2---0------|
D|---2-----------------2-3-3-3-3-3-3---2------|
A|---3-----------------3---------------3------|
E|-------------------------------------0------|

E|-------------------------1--------0-------------------------------|
B|-------------------------0--------1-------------1---0h2-0---------|
G|------0—0h2-0------------0—0h2-0--0-------0h2-0-----------2-0-----|
D|----2---—-----2—2h3p2----0--------2—0h2-0-------------------------|
A|--3----------------------2--------3-------------------------------|
E|-------------------------3----------------------------------------|

E|----------------------------0-------|
B|----------------------------1-------|
G|----------------------------0-------|
D|--2-0-----------------------2-------|
A|-------2-0------------2-0---3-------|
E|------------2-0--3-0----------------|

----------------------------------------------------------------------------------------------
h: hammer on
p: pull off
----------------------------------------------------------------------------------------------
Добавлено: 19.05.2012
Другие материалы по этой песне:
  • Аккорды и текст

Страница создана 19.05.2012
http://primanota.ru/esteban/wildwood-flower-chords.htm
Привет, Гость.
Предлагаем пройти революционный курс по гитаре.
Подарок от PrimaNota.Ru, забирай!