PrimaNota.ru - самый крупный в мире бесплатный архив песенных текстов, аккордов, табулатур и нот


Esteban - We Three Kings - таба, видео

Регистрация Запомнить меня
Войти через:  Facebook Google Twitter Vk Yandex Mail.ru

Esteban - We Three Kings - таба, видео

Печатать
Просмотров: 174
Уроки эстрадного вокала в Санкт-Петербурге
----------------------------------------------------------------------------
We Three Kings by Esteban
----------------------------------------------------------------------------

By: psquartsoff01 (psquartsoff@hotmail.com)

Tuning: Standard (E A D G B E)

E|---7---7---7---7---7---7---7---7---5---5---3---3---3---3---0-------|
B|-0-------0-------0-------0-------0---0---0-------0-------0---------|
G|-----0-------0-------0-------0---------------0-------0-------------|
D|-------------------------------------------------------------------|
A|-------------------------------------------------------------------|
E|-------------------------------------------------------------------|

E|-2-3-2---0~--------------------------------------------------------|
B|-3-------0~--------------------------------------------------------|
G|-2-------0~--------------------------------------------------------|
D|-0-------2~--------------------------------------------------------|
A|---------2~--------------------------------------------------------|
E|---------0~--------------------------------------------------------|x2
...on the second time play
E|-------3---5---10-8-7----10-8h10p8-7---5-8-5---3-2---0-------------|
B|-------3---7---8-----------------------5---5---3-3---0-------------|
G|-------0---7---7-----------------------5---5---2-2---0-------------|
D|-2-4---0---0---9-----------------------7---7---0-0---2-------------|
A|-2-4---2---------------------------------------------2-------------|
E|-0-0---3-----------------0~--------------------------0-------------|


E|---3---3---3-----3---3---3---3---3---0---3---5-5-7---8-8-5---5-5-8-|
B|---------0-------------0-----------1-----0---7-------5-------7-----|
G|-----0-------------0-----------0---------0---7-------5-------7-----|
D|-0-----------0-0-----------2-------------0---0-------7-------0-----|
A|-2-----------2-2-----------3-------------2-------------------------|
E|-3-----------3-3-------------------------3-------------------------|

E|---3---3---3-----3---3---3---3---3---0---0---------------0~--------|
B|---------0-------------0-----------1-----0---------------0~--------|
G|-----0-------------0-----------0---------0---------------0~--------|
D|-0-----------0-0-----------2-------------2-2-4-5---5-4---2~--------|
A|-2-----------2-2-----------3-------------2-2-4-5-0-5-4---2~--------|
E|-3-----------3-3-------------------------0-0-0-0-0-0-0---0~--------|

~: let it ring
h: hammer on
p: pull off
Добавлено: 29.03.2012
Другие материалы по этой песне:
  • Аккорды и текст

Страница создана 29.03.2012
http://primanota.ru/esteban/we-three-kings-chords.htm
Привет, Гость.
Предлагаем пройти революционный курс по гитаре.
Подарок от PrimaNota.Ru, забирай!