PrimaNota.ru - самый крупный в мире бесплатный архив песенных текстов, аккордов, табулатур и нот


Esteban - The Boogie Woogie - таба, видео

Регистрация Запомнить меня
Войти через:  Facebook Google Twitter Vk Yandex Mail.ru

Esteban - The Boogie Woogie - таба, видео

Печатать
Просмотров: 402
Уроки эстрадного вокала в Санкт-Петербурге
------------------------------------------------------------------------
                             The Boogie Woogie by Esteban
------------------------------------------------------------------------
By: Psquartsoff01

Tuning: Standard (E A D G B E)

E|----------------------------------------------------------------|
B|----------------------------------------------------------------|
G|------—-------------—-------------------------------------------|
D|-------—-----—--------------------------------------------------|
A|---------22--44--55--44--22---------------22--44--55—44--22-----|
E|-00--44---------------------44--00--44----------------------44--|


E|-----------------------------------------------------------------|
B|-----------------------------------------------------------------|
G|------—-------------—--------------------------------------------|
D|-------—-22--44--55—-44--22--------------------------------------|
A|-00--44----------------------44----------22--44--55--44--22------|
E|---------------------------------00--44----------------------44--|

Play this a couple of times

E|--------------------------------------------------------|
B|--------------------------------------------------------|
G|--------------------------------------------------------|
D|---------------5h7-----------------3h5------------------|
A|-------55h6h7--------------33h4h5-----------------------|
E|---88------------------66-------------------------------|

E|-------------------------0-0------0-------------------------|
B|-------------------------0-0------0-------------------------|
G|-------------------------1-1------1-------------------------|
D|-------------------------2-2--2---2-------------------------|
A|---------22--44--55—-----2-2--2---2-------------------------|
E|-00--44------------------0-0--0---0-------------------------|
                                pm
---------------------------------------------------------------------------------------------
h: hammer on
pm: palm mute
---------------------------------------------------------------------------------------------
Добавлено: 01.06.2012
Другие материалы по этой песне:
  • Аккорды и текст

Страница создана 01.06.2012
http://primanota.ru/esteban/the-boogie-woogie-chords.htm
Привет, Гость.
Предлагаем пройти революционный курс по гитаре.
Подарок от PrimaNota.Ru, забирай!