PrimaNota.ru - самый крупный в мире бесплатный архив песенных текстов, аккордов, табулатур и нот


Esteban - Pat A Pan - таба, видео

Регистрация Запомнить меня
Войти через:  Facebook Google Twitter Vk Yandex Mail.ru

Esteban - Pat A Pan - таба, видео

Печатать
Просмотров: 117
Yet Another Tab from Esteban Tabbed by Mwa~!   This is a VERY
Lovely song...Yet it takes time to figure out Esteban's Technique
in the song.  So make sure you Listen carefully to the song...Or
just play it however you wish... (PLEASE FINGERPICK THE SONG!)

            Pat A Pan!


|--0-0------7-7---5--7/3--2/3---5------7----5--0------|
|--0-0------0-0--------0--3-----3---3--0----3--0------|
|--1-1------0-0--------0--2-----5------0----5--1------|
|-----------------------------------------------------|
|-----------------------------------------------------|
|--0-0------3-3--------3---------------3-------0------|

This Part probably isn't perfect but it works! lol.

|--2--3--2h3p2-0-2--3--3/5-6---7---7/8-7-5--3---0-----|
|--3--3--3----------0--0-----6-0---0--------0---0-----|
|--2--2--2----------0--0-------0---0--------0---1-----|
|-----------------------------------------------------|
|-----------------------------------------------------|
|-------------------3--3-------3---3--------3---0-----|

|--2--3--2h3p2-0-2-3--2--3---5----7----5--0-----------|
|--3--3--3---------0---------3-3--0----3--0-----------|
|--2--2--2---------0---------5----0----5--1-----------|
|-----------------------------------------------------|
|-----------------------------------------------------|
|------------------3--------------3-------0-----------|

Then you just repeat!

|--0-0------7-7---5--7/3--2/3---5------7----5--0------|
|--0-0------0-0--------0--3-----3---3--0----3--0------|
|--1-1------0-0--------0--2-----5------0----5--1------|
|-----------------------------------------------------|
|-----------------------------------------------------|
|--0-0------3-3--------3---------------3-------0------|


|--2--3--2h3p2-0-2--3--3/5-6---7---7/8-7-5--3---0-----|
|--3--3--3----------0--0-----6-0---0--------0---0-----|
|--2--2--2----------0--0-------0---0--------0---1-----|
|-----------------------------------------------------|
|-----------------------------------------------------|
|-------------------3--3-------3---3--------3---0-----|

|--2--3--2h3p2-0-2-3--2--3---5----7----5--0-----------|
|--3--3--3---------0---------3-3--0----3--0-----------|
|--2--2--2---------0---------5----0----5--1-----------|
|-----------------------------------------------------|
|-----------------------------------------------------|
|------------------3--------------3-------0-----------|  

Then the rest of your imaginary band kicks in and
              WALLA!!  
Any questions or comments?  Let me know!  Even something
just nice and cool to say lol.......just e-mail me =D...
(Are you a Fan of Esteban? Check out Acoustical-emotion.com
for more cool tabs like this!!!)

                         Love Everyone,
                           Sean Andresen
Acoustical_emotion@yahoo.com

Offical Site - http://estebanmusic.com
Добавлено: 18.06.2012
Другие материалы по этой песне:
  • Аккорды и текст

Страница создана 18.06.2012
http://primanota.ru/esteban/pat-a-pan-chords.htm
Привет, Гость.
Предлагаем пройти революционный курс по гитаре.
Подарок от PrimaNota.Ru, забирай!