PrimaNota.ru - самый крупный в мире бесплатный архив песенных текстов, аккордов, табулатур и нот


Esteban - House Of The Rising Sun Tremolo Style - таба, видео

Регистрация Запомнить меня
Войти через:  Facebook Google Twitter Vk Yandex Mail.ru

Esteban - House Of The Rising Sun Tremolo Style - таба, видео

Печатать
Просмотров: 126
Уроки эстрадного вокала в Санкт-Петербурге
-----------------------------------------------------------------------
House of the Rising Sun Tremolo Style by Esteban
-----------------------------------------------------------------------

By: psquartsoff01 (psquartsoff@hotmail.com)
Tuning: Standard (E A D G B E)


Intro
E|----------3-5-5/8-7-8-8/10-8-10-12-11-10-8h10p8---------------------|
B|-1-3-3/5----------------------------------------8h10p8-5-4-3-1h3p2--|
G|-------------------------------------------------------------------2|
D|--------------------------------------------------------------------|
A|--------------------------------------------------------------------|
E|--------------------------------------------------------------------|
 
E|---000---000---000---000---000---000---000---000---000--------------|
B|-------------1-----------------1-----------------1------------------|
G|-------2-----------------2-----------------0------------------------|
D|-2-----------------2-----------------2------------------------------|
A|-0-----------------0-----------------3------------------------------|
E|-0-----------------0-----------------0------------------------------|
 
E|---000---000---000---222---222---222---222---222---222--------------|
B|-------------1-----------------3-----------------3------------------|
G|-------0-----------------2-----------------2------------------------|
D|-2-----------------0-----------------0------------------------------|
A|-3-----------------0-----------------0------------------------------|
E|-0-----------------0-----------------0------------------------------|
 
E|---000---000---000---000---000---000--------------------------------|
B|-------------1-----------------1------------------------------------|
G|-------2-----------------2------------------------------------------|
D|-3-----------------3------------------------------------------------|
A|-0-----------------0------------------------------------------------|
E|-0-----------------0------------------------------------------------|
 
E|---000---000---000---000---000---000---000---000---000--------------|
B|-------------1-----------------1-----------------1------------------|
G|-------2-----------------2-----------------0------------------------|
D|-2-----------------2-----------------2------------------------------|
A|-0-----------------0-----------------3------------------------------|
E|-0-----------------0-----------------0------------------------------|
 
E|---000---000---000---000---000---000---000---000---000--------------|
B|-------------1-----------------0-----------------0------------------|
G|-------0-----------------1-----------------1------------------------|
D|-2-----------------2-----------------2------------------------------|
A|-3-----------------2-----------------2------------------------------|
E|-0-----------------0-----------------0------------------------------|
 


E|---000---000---000---000-------------0------------------------------|
B|-------------0-----------------0------------------------------------|
G|-------1-----------------1------------------------------------------|
D|-2-----------------2------------------------------------------------|
A|-2-----------------2------------------------------------------------|
E|-0-----------------0------------------------------------------------|

E|---000---000---000---000---000---000---000---000---000--------------|
B|-------------1-----------------1-----------------1------------------|
G|-------2-----------------2-----------------0------------------------|
D|-2-----------------2-----------------2------------------------------|
A|-0-----------------0-----------------3------------------------------|
E|-0-----------------0-----------------0------------------------------|
 
E|---000---000---000---222---222---222---222---222---222--------------|
B|-------------1-----------------3-----------------3------------------|
G|-------0-----------------2-----------------2------------------------|
D|-2-----------------0-----------------0------------------------------|
A|-3-----------------0-----------------0------------------------------|
E|-0-----------------0-----------------0------------------------------|
 
E|---000---000---000---000---000---000--------------------------------|
B|-------------1-----------------1------------------------------------|
G|-------2-----------------2------------------------------------------|
D|-3-----------------3------------------------------------------------|
A|-0-----------------0------------------------------------------------|
E|-0-----------------0------------------------------------------------|
 
E|---000---000---000---000---000---000---000---000---000--------------|
B|-------------1-----------------1-----------------1------------------|
G|-------2-----------------2-----------------0------------------------|
D|-2-----------------2-----------------2------------------------------|
A|-0-----------------0-----------------3------------------------------|
E|-0-----------------0-----------------0------------------------------|
 
E|---000---000---000---000---000---000---000---000---000--------------|
B|-------------1-----------------0-----------------0------------------|
G|-------0-----------------1-----------------1------------------------|
D|-2-----------------2-----------------2------------------------------|
A|-3-----------------2-----------------2------------------------------|
E|-0-----------------0-----------------0------------------------------|

E|---000---000---000--------------0-----------------------------------|
B|-------------1--------------1---------------------------------------|
G|-------2----------------2-------------------------------------------|
D|-2------------------2-----------------------------------------------|
A|-0------------------------------------------------------------------|
E|-0------------------------------------------------------------------|

h: hammer on
p: pull off
/: slide
Добавлено: 04.04.2012
Другие материалы по этой песне:
  • Аккорды и текст

Страница создана 04.04.2012
http://primanota.ru/esteban/house-of-the-rising-sun-tremolo-style-chords.htm
Привет, Гость.
Предлагаем пройти революционный курс по гитаре.
Подарок от PrimaNota.Ru, забирай!