PrimaNota.ru - самый крупный в мире бесплатный архив песенных текстов, аккордов, табулатур и нот


Esteban - House Of The Rising Sun - таба, видео

Регистрация Запомнить меня
Войти через:  Facebook Google Twitter Vk Yandex Mail.ru

Esteban - House Of The Rising Sun - таба, видео

Печатать
Просмотров: 126
Уроки эстрадного вокала в Санкт-Петербурге
House Of The Rising Sun
By: Esteban


Hope this is right, I'm doing it from memory

  Am              C               D               F           
E---------------|---------------|-------2-------|-------1-------|
B-------1-------|-------1-------|-----3---3-----|-----1---1-----|
G-----2---2-----|-----0---0-----|---2-------2---|---2-------2---|
D---2-------2---|---2-------2---|-0-----------0-|-3-----------3-|
A-0-----------0-|-3-----------3-|---------------|---------------|
E---------------|---------------|---------------|---------------|
  Am              C               E                                  
E---------------|---------------|---------------|
B-------1-------|-------1-------|---------------|
G-----2---2-----|-----0---0-----|-------1-------|
D---2-------2---|---2-------2---|-----2---2-----|
A-0-----------0-|-3-----------3-|---2-------2---|
E---------------|---------------|-0-----------0-|
Добавлено: 26.02.2012
Другие материалы по этой песне:
  • Аккорды и текст

Страница создана 26.02.2012
http://primanota.ru/esteban/house-of-the-rising-sun-chords.htm
Привет, Гость.
Предлагаем пройти революционный курс по гитаре.
Подарок от PrimaNota.Ru, забирай!