PrimaNota.ru - самый крупный в мире бесплатный архив песенных текстов, аккордов, табулатур и нот


Esteban - Greensleeves - таба, видео

Регистрация Запомнить меня
Войти через:  Facebook Google Twitter Vk Yandex Mail.ru

Esteban - Greensleeves - таба, видео

Печатать
Просмотров: 119
----------------------------------------------------------------------------
                             Greensleeves by Esteban
-----------------------------------------------------------------------------

By: psquartsoff01 (psquartsoff@hotmail.com)

Tuning: Standard (E A D G B E)


E|---0-----0----1-0--0---------------------------------0--------|
B|---1---3-1---------1--0------------1-----------------0--------|
G|-2-2-----2---------0------------0--2--2----2---1h3---1--1-----|
D|---2-----2---------2-----0---2-----2-------2---------2----2---|
A|---0-----0---------3-----2---------0-------0---------2----2---|
E|---0-----0---------------3--------------------------------0---|
 
E|---0-----0----1-0--0--------1------------------------0--------|
B|---1---3-1---------1--0----0-------1-------0---------1--------|
G|-2-2-----2---------0------0-----0--2--0----1-----1---2--------|
D|---2-----2---------2-----0---2-----2----2--2---4-----2--------|
A|---0-----0---------3-----2---------0-------2------------------|
E|---0-----0---------------3------------------------------------|

E|-3—-3---2-0------------------0-----------------------|
B|-1--1---------3—-0-----------1-------------0---------|
G|-0--0---------0-----0---2-0--2--2--2--1-2--1--1--0---|
D|-2--2---------0-----0--------2-----2-------2-----2---|
A|-3--3---------2-----2--------------0-------2-----2---|
E|--------------3-----3----------------------------0---|

E|-3—-3---2-0------------------0--------------------0-------|
B|-1--1---------3--0-----------1--0-----------------1-------|
G|-0--0---------0-----0---2-0--2-----1--0--1----1---2-------|
D|-2--2---------0-----0--------2-----2--------4-----2---7---|
A|-3--3---------2-----2--------------2------------------0---|
E|--------------3-----3--------------0------------------0---|
Добавлено: 09.05.2012
Другие материалы по этой песне:
  • Аккорды и текст

Страница создана 09.05.2012
http://primanota.ru/esteban/greensleeves-chords.htm
Привет, Гость.
Предлагаем пройти революционный курс по гитаре.
Подарок от PrimaNota.Ru, забирай!