PrimaNota.ru - самый крупный в мире бесплатный архив песенных текстов, аккордов, табулатур и нот


Esteban - Good King Wenceslaus - таба, видео

Регистрация Запомнить меня
Войти через:  Facebook Google Twitter Vk Yandex Mail.ru

Esteban - Good King Wenceslaus - таба, видео

Печатать
Просмотров: 97
  Very lovely song by Esteban...I tabbed this one out 
Somehow...But I don't remember...Just sitting there
and listening with my ears XD...Got it rough huh? lol.
Okay...The song..The actual tab is short but it just 
repeats itself alot =D...There is simply two seperate 
verses...Anyway..You'll figure it out ;).

              Good King Wenceslaus 
			  
			  
The whole thing TIMES TWO!!!

|--3--3--3/5-5--3p0h3--------0------0--2--3-----3-----|
|--0-----0------0------3-----1---3--1--3--0--0-0------|
|--0-----0------0------0-----0---0--0--2--0---0-------|
|----------------------0---------0-----0--------------|
|----------------------------3------3-----------------|
|--3-----3------3------3---------3--------3-----------|

|--3--3--3/5-5--3p0h3--------0---------0--2--3-----3--|
|--0-----0------0------3-----1---3--3--1--3--0--0-0---|
|--0-----0------0------0-----0---0--0--0--2--0---0----|
|----------------------0---------0--0-----0-----------|
|----------------------------3---------3--------------|
|--3-----3------3------3---------3-----------3--------|

Ok Now I know this isn't right..Play it fast!  SOund ok.

|--3--7--9--7--5--7--5--3--7--5--3--------------------|
|-----------------------------------------------------|
|--4--8--9--8--6--7--6--4--8--6--4--------------------|
|-----------------------------------------------------|
|-----------------------------------------------------|
|-----------------------------------------------------|

|--0-----0--2--3-----3-------------0-0--2-2--5--------|
|--1--3--1--3--0--0-0--------3--3--1-1--3-3--3--------|
|--0--0--0--2--0---0---------0--0--0----2----5--------|
|-----0-----0----------------0----------0----0--------|
|--3-----3-------------------------3------------------|
|-----3--------3-------------3------------------------|

On the second time u play a tremelo on the second from 
last chord!	

|--10---8--7--5--3---8--3-----------------------------|
|----------------0---5--0-----------------------------|
|----------------0---5--0-----------------------------|
|-----------------------------------------------------|
|--------------------0--------------------------------|
|----------------3------3-----------------------------|
Any questions or comments?  Let me know!  Even something
just nice and cool to say lol.......just e-mail me =D...
(Are you a Fan of Esteban? Check out Acoustical-emotion.com
for more cool tabs like this!!!)

                         

Offical Site - http://estebanmusic.com
Добавлено: 14.06.2012
Другие материалы по этой песне:
  • Аккорды и текст

Страница создана 14.06.2012
http://primanota.ru/esteban/good-king-wenceslaus-chords.htm
Привет, Гость.
Предлагаем пройти революционный курс по гитаре.
Подарок от PrimaNota.Ru, забирай!