PrimaNota.ru - самый крупный в мире бесплатный архив песенных текстов, аккордов, табулатур и нот


Esteban - Fuego Malaguena - таба, видео

Регистрация Запомнить меня
Войти через:  Facebook Google Twitter Vk Yandex Mail.ru

Esteban - Fuego Malaguena - таба, видео

Печатать
Просмотров: 101
Don't be afraid to make up your own variations..
Fuego Malaguena is very Edible!


Esteban - Fuego Malaguena - CORRECT/b>

                 Tabbed By:
	   Acoustical-Emotion.com  
(Esteban Mega Fansite)  We have more tabs like that here...
Also have an MP3 player with Esteban MP3's..on it for helping you
learn howto play these type of songs!
			 
		TREMELO!!!!!! PLEASE READ THIS!!!...
In order to play a tremelo PLEASE use your thumb for 
picking any other note accept the bottom string and use
your Ring, Middle, And Pointer finger for alternating 
the tremelo.  Thank you!
	 
-----Introduction-----
 

|----5-5-5---5-5-5---5-5-5---8-8-8---8-8-8---8-8-8----|
|------------------5-----------------------5----------|
|----------5-----------------------5------------------|
|--7-----------------------7--------------------------|
|-----------------------------------------------------| 
|-----------------------------------------------------|

|----5-5-5---7-7-7----8-8-8----7-7-7----7-7-7---------|
|------------------5----------------------------------|
|----------5-----------------5--------5---------------|
|--7--------------------------------------------------|
|-----------------------------------------------------| 
|-----------------------------------------------------|
________________________________________________________

|---0-0-0---0-0-0---0-0-0---0-0-0---0-0-0---0-0-0-----|
|-----------------------------------------------------|
|-----------------------------------------------------|
|-----------------------------------------------------|
|--2------2-------2-------2-------3-------2-----------| 
|-----------------------------------------------------|
					                        X 2
|----0-0-0---0-0-0------------------------------------|
|-----------------------------------------------------|
|-----------------------------------------------------|
|-----------------------------------------------------|
|-----------------------------------------------------| 
|--3-------0------------------------------------------|
________________________________________________________

|--------------------------0--------------------------|
|--------------------------0--------------------------|
|--------------------------1--------------------------|
|--------------------------2--------------------------|
|--------------------------2--------------------------| 
|--0-0-0-3-3-3-1-1-1-0-----0--------------------------|

Where it says 1b hold it down and vibrate the note.
|-----------------------------------------------------|
|-----------------------------------------------------|
|-----2-2-2----2-2-2---2-2-2--------------------------|
|-----------------------------------------------------|
|-----------------------------------------------------| 
|--1---------1-------1-------1b----------------0------|

|-------------------------------------0---------------|
|-------------------------------------0---------------|
|-------------------------------------1---------------|
|-------------------------------------2---------------|
|-------------------------------------2---------------| 
|--0h1-0h1-0h1-0h1-0h1-0h1-0----------0---------------|

-----Main Riff-----
|-----0-0-0---0-0-0---0-0-0---0-0-0---0-0-0---0-0-0---|
|-------------------0-----------------------0---------|
|-----------1-----------------------1-----------------|
|---2-----------------------2-------------------------|
|-----------------------------------------------------| 
|-----------------------------------------------------|

|----0-0-0---0-0-0---0-0-0---0-0-0---0-0-0---0-0-0----|
|----------1-------0----------------------------------|
|--2-----------------------2-------0------------------|
|------------------------------------------3----------|
|-----------------------------------------------------| 
|-----------------------------------------------------|

|-----0-0-0---0-0-0---0-0-0---0-0-0---0-0-0---0-0-0---|
|-------------------0-----------------------0---------|
|-----------1-----------------------1-----------------|
|---2-----------------------2-------------------------|
|-----------------------------------------------------| 
|-----------------------------------------------------|

|----0-0-0---0-0-0---0-0-0---0-0-0---0-0-0---0-0-0----|
|----------1-------0----------------------------------|
|--2-----------------------2-------0------------------|
|------------------------------------------3----------|
|-----------------------------------------------------| 
|-----------------------------------------------------|

|----0-0-0---0-0-0---0-0-0---0-0-0---0-0-0---0-0-0----|
|----------------------------------0-------1----------|
|------------------1-------2--------------------------|
|--3-------4------------------------------------------|
|-----------------------------------------------------| 
|-----------------------------------------------------|

|----0-0-0---0-0-0---0-0-0---0-0-0---0-0-0---0-0-0----|
|----------0-------1-------3-------5-------6----------|
|--2--------------------------------------------------|
|-----------------------------------------------------|
|-----------------------------------------------------| 
|-----------------------------------------------------|

|----0-0-0---0-0-0---0-0-0---0-0-0---0-0-0---0-0-0----|
|--5-------3-------1-------0--------------------------|
|----------------------------------2-------0----------|
|-----------------------------------------------------|
|-----------------------------------------------------| 
|-----------------------------------------------------|

From there on you can repeat it, edit it, or do whatever...
Just have fun! 

Any questions or comments?  Let me know!  Even something
just nice and cool to say lol.......just e-mail me =D...
(Are you a Fan of Esteban? Check out Acoustical-emotion.com
for more cool tabs like this!!!)

                         Love Everyone,
                           Sean Andresen
Acoustical_emotion@yahoo.com
Добавлено: 17.07.2012
Другие материалы по этой песне:
  • Аккорды и текст

Страница создана 17.07.2012
http://primanota.ru/esteban/fuego-malaguena-chords.htm
Привет, Гость.
Предлагаем пройти революционный курс по гитаре.
Подарок от PrimaNota.Ru, забирай!