PrimaNota.ru - самый крупный в мире бесплатный архив песенных текстов, аккордов, табулатур и нот


Esteban - Dreamin - таба, видео

Регистрация Запомнить меня
Войти через:  Facebook Google Twitter Vk Yandex Mail.ru

Esteban - Dreamin - таба, видео

Печатать
Просмотров: 107
Уроки эстрадного вокала в Санкт-Петербурге
-----------------------------------------------------------------------
                             Dreamin' by Esteban
-----------------------------------------------------------------------

By:psquartsoff01 (psquartsoff@hotmail.com)

Tuning: Standard (E A D G B E)
 

E|--2—-0h2p0---5---2—0h2p0---5---0—0h2p0---5--0—0h2p0---5---|
B|--3--------3-----3-------3-----3-------3----3-------3-----|
G|--2--------------2-------------0------------0-------------|
D|--0----------------------------2--------------------------|
A|-------------------------------3--------------------------|
E|----------------------------------------------------------|

E|--0—-0h2p0---5--0—0h2p0---5--0—0h2p0---5--0—0h2p0---5-----|
B|--3--------3----3-------3----3-------3----3-------3-------|
G|--0-------------0------------0------------0---------------|
D|--0-------------0------------0------------0---------------|
A|--2-------------2------------1------------1---------------|
E|--3-------------3-----------------------------------------|

h: hammer on
p: pull off
Добавлено: 25.04.2012
Другие материалы по этой песне:
  • Аккорды и текст

Страница создана 25.04.2012
http://primanota.ru/esteban/dreamin-chords.htm
Привет, Гость.
Предлагаем пройти революционный курс по гитаре.
Подарок от PrimaNota.Ru, забирай!