PrimaNota.ru - самый крупный в мире бесплатный архив песенных текстов, аккордов, табулатур и нот


Esteban - Country Pie - таба, видео

Регистрация Запомнить меня
Войти через:  Facebook Google Twitter Vk Yandex Mail.ru

Esteban - Country Pie - таба, видео

Печатать
Просмотров: 107
Country Pie
By Esteban
Tuning: Standard (EADGBE)

E|---------------3~--3-3---------------3---------------0~--------|
B|---------------0~--0-0---------------0---------------1~-1--2---|
G|---------------0~--0-0---------------0----------0h2--0~--------|
D|----------0h2--0~--0-0----------0h2--0------0h2------2~-2--3---|
A|------0h2------2~--2-2------0h2------2--0h3----------3~-3--4---|
E|--0h3----------3~--3-3—-0h3----------3---------------0~--------|

E|-2-2-2-2---------------------------------------3---------------|
B|-3-3-3-3---------------------------------------0---------------|
G|-2-2-2-2---2h4-2-0-----------------------------0---------------|
D|-0-0-0-0-----------4h2p0-2h4p200---------------0---------------|
A|---------------------------------3p2-----------2---------------|
E|--------------—----------------------0h1-0h2-0h3---------------|

E|---------------3~--3-3---------------3---------------0~--------|
B|---------------0~--0-0---------------0---------------1~-1--2---|
G|---------------0~--0-0---------------0----------0h2--0~--------|
D|----------0h2--0~--0-0----------0h2--0------0h2------2~-2--3---|
A|------0h2------2~--2-2------0h2------2--0h3----------3~-3--4---|
E|--0h3----------3~--3-3—-0h3----------3---------------0~--------|

E|-2-2-2-2---------------------------------------3---------------|
B|-3-3-3-3---------------------------------------0---------------|
G|-2-2-2-2---2h4-2-0-----------------------------0---------------|
D|-0-0-0-0-----------4h2p0-2h4p200---------------0---------------|
A|---------------------------------3p2-----------2---------------|
E|--------------—----------------------0h1-0h2-0h3---------------|

E|--0h1p0-------------------------------------3~-----------------|
B|---------1p0------------------------------0--------------------|
G|--------------2p0-----------------------0----------------------|
D|-------------------2p0----------------0------------------------|
A|------------------------------------2--------------------------| 
E|--------------—---------0h1-0h2-0h3----------------------------|

Key:
h: hammer on
p: pull off
~: vibrato
You can play this as many times as you like.
Добавлено: 14.04.2012
Другие материалы по этой песне:
  • Аккорды и текст

Страница создана 14.04.2012
http://primanota.ru/esteban/country-pie-chords.htm
Привет, Гость.
Предлагаем пройти революционный курс по гитаре.
Подарок от PrimaNota.Ru, забирай!