PrimaNota.ru - самый крупный в мире бесплатный архив песенных текстов, аккордов, табулатур и нот


Esteban - Canon - таба, видео

Регистрация Запомнить меня
Войти через:  Facebook Google Twitter Vk Yandex Mail.ru

Esteban - Canon - таба, видео

Печатать
Просмотров: 189
-------------------------------------------------------------------------------
                             Canon - Esteban
-------------------------------------------------------------------------------
Tabbed by:Awesome-oh
Email:funktotherock33@yahoo.com

Tuning:standard

A few tips. There will be chords in this song but the idea is that instead of strumming,
use the thumb for the bass of the chord and then "roll" your other fingers picking each
of the chord. If you do it right it will still sound like a chord, just prettier. I 
everyone get the DVD's because they are amazing.

e|-3--0--1--3--0--1--3-----------0h1---0-----0-----0-------0-----------------|
B|-1--------1--------0-----0h1-3-------1-1-3-1-----1-------1-1-0h1--1-1-0-1--|
G|-0--------0--------0-0h2-------------2-----2-----0-------0--------2-----2--|
D|---------------------------------------------2h3---3-2h3----------3-----3--|
A|-3--------3--------------------------0-----0-----3-------3-----------------|
E|-------------------3-------3--------------------------------------1-----1--|

e|--------------------------------------------0-1-3|-| -3-------------------|
B|-0----1-------1-1-0h1-1-1-0-1-0---3---0-1-3------|-|.-1-----1-----1-------|
G|---2--0-------0-------2-----2---2-0-2------------|-| -0---0-----0---0-----|
D|------2-3-2h3-2-------3-----3-----0--------------|-|.---2-----2-----------|
A|------3-------3----------------------------------|-| -3-------------------|
E|----------------------1-----1-----3--------------|-|----------------------|

e|-3---5---3---1--0-------0-------0---1---0----------------------3-----------|
B|-0--------------1-----1---1-----0-----------3---1---0-------0--1-----1-----|
G|-0--------------2---2-------2---0---------------2-------2------0---0-------|
D|------------------2-----------2-----------------3----------------2---------|
A|----------------0----------------------------------------------3-----------|
E|-3-3---3---3--------------------0-0---0---0-----1-1---1---1----------------|

e|---------|-----------------|-|-----------------3---------------------------|
B|------1--|-1---0-------0---|-|-1---0-------0---1---------------------------|
G|----0---0|-0-------3-----.-|-|-0-------2-------0---------------------------|
D|--2------|-----------------|-|---------------------------------------------|
A|---------|---------------.-|-|-----------------3---------------------------|
E|---------|-3-3---3---3-----|-|-3-3---3---3---------------------------------|
             first ending.       second ending.
You can repeat the entire song as many times as you want and enjoy playing it. Esteban
you to improvise alot. Just add a lot more bass and transition notes to it and play
with tempo and rythym and you get a super awesome song for finger picking.

| /  slide up
| \  slide down
| h  hammer-on
| p  pull-off
| ~  vibrato
| +  harmonic
| x  Mute note
===============================================================================
Добавлено: 03.07.2012
Другие материалы по этой песне:
  • Аккорды и текст

Страница создана 03.07.2012
http://primanota.ru/esteban/canon-chords.htm
Привет, Гость.
Предлагаем пройти революционный курс по гитаре.
Подарок от PrimaNota.Ru, забирай!