PrimaNota.ru - самый крупный в мире бесплатный архив песенных текстов, аккордов, табулатур и нот


Esteban - Amazing Grace - таба, видео

Регистрация Запомнить меня
Войти через:  Facebook Google Twitter Vk Yandex Mail.ru

Esteban - Amazing Grace - таба, видео

Печатать
Просмотров: 106
This song...For some reason I accidentally figured out 
lol..IT was a lot of work and I would appreciate it if 
for this one you let people know about it...Thank you!


Esteban - Amazing Grace FINGERPICK IT

                 Tabbed By:
	   Acoustical-Emotion.com  (Esteban Mega Fansite)
			 
	TREMELO!!!!!! PLEASE READ THIS!!!...In order to play correctly!
In order to play it the advanced way please play every 
chord that has this symbol " Þ " next to the chord 
as a tremelo...The first chord is shown to you just 
in case you do not know what a tremelo is!  You'll have 
to listen to the song of course to play it exactly!
	 
-----Main Verse-----
 
|-------3-----3-3-3---3-3-3---3-3-3---3-3-3---3-3-3---|
|---3/5-----------------------------0-----------------|
|---0-----------------------0-------------------------|
|---0---------------0-----------------------0---------|
|-----------------------------------------------------| 
|---3-------3-----------------------------------------|

|-----3-3-3---3-3-3--7--5--3---7Þ---5Þ---3Þ--0-0-0h3--|
|-----------0------------------0Þ---3Þ---0Þ-----------|
|---0---------------8--6--4----0Þ---5Þ---0Þ-----------|
|------------------------------0Þ---0Þ---0Þ-----------|
|-----------------------------------------------------| 
|------------------------------7Þ--------3Þ-----------|

|---0-------------------------------------------------|
|-----3-3-----3-----3---------------------------------|
|-----0---0-----0-------------------------------------|
|-----0-----0-----0-----------------------------------|
|-----------------------------------------------------| 
|-----3-----------------------------------------------|

|--------------3Þ---7--5--3-7Þ---5/7--9--10-----------|
|--3--3-3---5--0Þ-----------0Þ---3-------7---7--------|
|--0--0-0------0Þ--8--6--4--0Þ---5-------7-----7------|
|--0--0-0------0Þ-----------0Þ---0-------0------------|
|-----------------------------------------------------| 
|--3-----------3Þ-----------7Þ------------------------|

|---12-----------14-------7h10--10Þ---7--5--3----7Þ---|
|------9-------11---------------7Þ---------------0Þ---|
|--------9---11-----------------7Þ---8--6--4-----0Þ---|
|-------------------------------0Þ---------------0Þ---|
|-----------------------------------------------------| 
|------------------------------------------------7Þ---|

|---5Þ----3Þ----0--0-0h3--0---------------------------|
|---3Þ----0Þ-----------------3------------------------|
|---5Þ----0Þ----0--0-0h4--0--0--0---------------------|
|---0Þ----0Þ-----------------0----0-------------------|
|-----------------------------------------------------| 
|---------3Þ-----------------3------3-----------------|

|--------3--3-----7--5--3--7---5--5/7--5--3-----------|
|---3/5-----0--------------0---3----------0-0---------|
|-----------0----8--6--4---0---5----------0---0-------|
|------------------------------0----------------------|
|-----------------------------------------------------| 
|-----------3--------------7--------------3-----3-----|

|-------------------3---------------------------------|
|--0---1--0-------------------------------------------|
|--0---0--0-------------------------------------------|
|--0---2--0-------------------------------------------|
|------3----------------------------------------------| 
|--3------3-------------------------------------------|

|-----------------------------------------------------|
|-----------------------------------------------------|
|-----------------------------------------------------|
|-----------------------------------------------------|
|-----------------------------------------------------| 
|-----------------------------------------------------|

Any questions or comments?  Let me know!  Even something
just nice and cool to say lol.......just e-mail me =D...
(Are you a Fan of Esteban? Check out Acoustical-emotion.com
for more cool tabs like this!!!)

                         Love Everyone,
                           Sean Andresen
Acoustical_emotion@yahoo.com
Добавлено: 07.03.2012
Другие материалы по этой песне:
  • Аккорды и текст

Страница создана 07.03.2012
http://primanota.ru/esteban/amazing-grace-chords.htm
Привет, Гость.
Предлагаем пройти революционный курс по гитаре.
Подарок от PrimaNota.Ru, забирай!