PrimaNota.ru - самый крупный в мире бесплатный архив песенных текстов, аккордов, табулатур и нот


Essence - Near Death - таба, видео

Регистрация Запомнить меня
Войти через:  Facebook Google Twitter Vk Yandex Mail.ru

Essence - Near Death - таба, видео

Печатать
Просмотров: 130
hey im nic the guitarist out of essence and this is the 100% correct tab ofnear death

INTRO
(palm mute)
--------------------------------------------------------------------------|
-----------8------------------------8-----------------7-----7-------7-----|
---9----------9----9-------9-----------9-----9----------7-----7--------7--|
-------9-9------9----9---------9-9-------9-----9----------7-----7---------|
--------------------------------------------------------------------------|
--------------------------------------------------------------------------| X
X2

VERSE same as intro X5

THEN....
(palm mute)
-------------------------------------------------------------------|
-------------------------------------------------------------------|
-----9999999999--------7----9999999999---------7-------------------|
-----9999999999--------7----9999999999---------7-------------------|
-----7777777777------7------7777777777--------7--------------------|
-------------------------------------------------------------------| X2

BRIDGE
----------------------------------------------------------------------------|
----------------------------------------------------------------------------|
----------------------------------------------------------------------------|
----5-5--7~~~----------5-5--7~~~-----------------5-5--7~~~----------5-5--7--|
----5-5--5~~~----------5-5--5~~~-----------------5-5--5~~~----------5-5--5--|
----5-5--------x-x-x-x-5-5------------x-x-x-x----5-5--------x-x-x-x-5-5-----|


CHROUS
-------------------------------------------------------------------|
-------------------------------------------------------------------|
----999---555-----------------555---7777777------------------------|
----999---555--5555555---555--555---7777777------------------------|
----777---333--5555555---555--333---5555555------------------------|
---------------5555555---555---------------------------------------|

----------------------------------------------------------------------------|
----------------------------------------------------------------------------|
---9-----5-----------------------5---77777777777---9-xx-5---7~~~~~~---------|
---9-----5-------5~~----5--------5---77777777777---9-xx-5---7~~~~~~---------|
---7-----3-------5~~----5--------3---55555555555---7-xx-3---5~~~~~~--5h6h7--|
-----------------5~~----5---------------------------------------------------|

INTRO

VERSE 2

CHOURUS 2

VERSE 3 very soft

CHORUS X2



and there it is
Добавлено: 23.04.2012
Вам также может быть интересно:
Другие материалы по этой песне:
  • Аккорды и текст

Страница создана 23.04.2012
http://primanota.ru/essence/near-death-chords.htm
Привет, Гость.
Предлагаем пройти революционный курс по гитаре.
Подарок от PrimaNota.Ru, забирай!