PrimaNota.ru - самый крупный в мире бесплатный архив песенных текстов, аккордов, табулатур и нот


Esquizitos - Santo Y Lunave - таба, видео

Регистрация Запомнить меня
Войти через:  Facebook Google Twitter Vk Yandex Mail.ru

Esquizitos - Santo Y Lunave - таба, видео

Печатать
Просмотров: 97
   Los Esquizitos/Santo y lunave
intro (bajo)
g-----------------------------------------------------------
d-----------------------------------------------------------
a-3-3-2-2--------2-2-2-3-3-3-2-2-2---------2-2-2-3-3-3-2-2-2
e---------5-5--5-------------------5-5-5-5------------------

e-----------------------------------------------------------
b-----------------------------------------------------------
g-----------------------------------------------------------
d-----------------------------------------------------------
a-7-6-5-3---------3-5-6-5-5----3-5-5----3-5-6-5-3---3-5-6-5-3-
e---------5-5--5-------------5--------5-----------5-----------
     'el santo... el heroe...  '
e-----------------------------------------------------------
b-----------------------------------------------------------
g-----------------------------------------------------------
d-----------------------------------------------------------
a-3-3-2-2--------3-3-2----------------------------------------
e---------5--5-5----------------------------------------------
   'este es el llamado de auxilio... santo llamando a lunave..'
e-----------------------------------------------------------
b-----------------------------------------------------------
g-----------------------------------------------------------
d-----------------------------------------------------------
a-6-6-6-5-3-0-3-0-3--6-6-5-6-5-6-6-5-6-6-6-6-5-3-0-3--------
e-----------------------------------------------------------
    'rápidooooo!!!'
e-----------------------------------------------------------
b-----------------------------------------------------------
g-----------------------------------------------------------
d-----------------------------------------------------------
a---3-5-3-0-3-0---3-5-3---6-5-3---3-5-3---3-----------------
e-5-------------5-------5-------5-------5---5---------------

e-----------------------------------------------------------
b-----------------------------------------------------------
g-------------------------3-----3-----3-----3---------------
d-6(x11)-6-5-3-0-3-0--3-5---3-5---3-5---3-5---5(x11)--------
a-----------------------------------------------------------
e-----------------------------------------------------------

e-----------------------------------------------------------
b-----------------------------------------------------------
g-----------------------------------------------------------
d-----------------------------------------------------------
a---3-5-6-5-3----5----3-5-6-3-3-2-2-0--0-0-2-2-3------------
e-3------------3----3---------------------------------------

eso es todo, ecuchen el disco para acomodar los riffs.
100% correcto!
peticiones a mi mail, sólo cosas chidas, no chingaderas.


eso es toda la canción
     
Добавлено: 06.12.2013
Вам также может быть интересно:
Другие материалы по этой песне:
  • Аккорды и текст

Страница создана 06.12.2013
http://primanota.ru/esquizitos/santo-y-lunave-chords.htm
Привет, Гость.
Предлагаем пройти революционный курс по гитаре.
Подарок от PrimaNota.Ru, забирай!