PrimaNota.ru - самый крупный в мире бесплатный архив песенных текстов, аккордов, табулатур и нот


Esquizitos - Pum-pum - таба, видео

Регистрация Запомнить меня
Войти через:  Facebook Google Twitter Vk Yandex Mail.ru

Esquizitos - Pum-pum - таба, видео

Печатать
Просмотров: 94
    Los Esquizitos/Pum-pum, bang-bang
bajo durante los versos:

g---------------------------------------------------------
d---------------------------------------------------------
a------5-7-----5-5/7--------------------------------------
e--5-7-----5-7--------------------------------------------


e---------------------------------------------------------
b---------------------------------------------------------
g---------------------------------------------------------
d-5-6-7-6-5--5-6-7-6-5-5--5-6-7-6--5-6-7-6--5-6-7-6-5-5---
a---------------------------------------------------------
e---------------------------------------------------------

e---------------------------------------------------------
b---------------------------------------------------------
g-5-6-7-6-5--5-6-7-6-5-5--5-6-7-6--5-6-7-6--5-6-7-6-5-5---
d---------------------------------------------------------
a---------------------------------------------------------
e---------------------------------------------------------

e---------------------------------------------------------
b---------------------------------------------------------
g---------------------------------------------------------
d---------------------------------------------------------
a--5(x8)----7(x8)----3(x8)--------------------------------
e---------------------------------------------------------

eso es todo!!




     
Добавлено: 03.07.2013
Другие материалы по этой песне:
  • Аккорды и текст

Страница создана 03.07.2013
http://primanota.ru/esquizitos/pum-pum-chords.htm
Привет, Гость.
Предлагаем пройти революционный курс по гитаре.
Подарок от PrimaNota.Ru, забирай!