PrimaNota.ru - самый крупный в мире бесплатный архив песенных текстов, аккордов, табулатур и нот


Esprit D'Air - Shizuku - таба, видео

Регистрация Запомнить меня
Войти через:  Facebook Google Twitter Vk Yandex Mail.ru

Esprit D'Air - Shizuku - таба, видео

Печатать
Просмотров: 37
Title: Shizuku
Artist: Esprit D'Air
Album: Shizuku
Music: Kai
Copyright: Esprit D'Air
Tempo = 182bpm
Electric Guitar

Legend
L - tied note
x - dead note
h - hammer on/pull off
b - bend
s - slide
~ - vibrato
g - ghost note
> - accentuated note
t - trill
M - palm mute
. - staccato
P - popping (bass)
S - slapping (bass)
+ - tapping
W - wide vibrato
< - fade in
w - whammy bar
= - tremolo picking
v - brush up
^ - brush down
V - pick stroke up
n - pick stroke down

Intro (x2)
D#||---------------------------|---------------------------|||
A#||---------------------------|---------------------------|||
F#||o--------------------------|--------------------------o|||
C#||o--------------------------|--------------------------o|||
G#||-------------1h-0-----0----|--------------1h-0--3h-0---|||
C#||-0M-0M-0M-0M-------0-------|--0M-0M-0M-0M--------------|||

Bridge (x8)
---------------------------|---------------------------|||
---------------------------|---------------------------|||
o--------------------------|--------------------------o|||
o7-----------------7--7----|-----------------5-----7--o|||
-5-----------------6--5----|-----------------3-----6---|||
----0M-0M-0M-0M-0M---------|--0M-0M-0M-0M-0M----0M-----|||

                             1st Verse
--------------------------|||------|-------|-------|-------|
--------------------------|||------|-------|-------|-------|
o------------------------o|||o-----|-------|-------|-------|
o7--7--7--7--7--7--7--7--o|||o-----|-------|-------|-------|
-5--5--5--5--5--5--5--5---|||-1L---|--1----|--1L---|--1----|
--------------------------|||-1L---|--1----|--1L---|--1----|


----------------------------|----------------------------|
----------------------------|----------------------------|
----------------------------|-----------------5-----5----|
--5M----8M-7M---------------|--5M----8M-7M---------------|
-----5M----------8-----8----|-----5M---------------------|
----------------------------|----------------------------|


----------------------------|---------------------------||-------|-------|
----------------------------|---------------------------||-------|-------|
----------------------------|--------------------------o||-------|-------|
--5M----8M-7M---------------|--5-----8--7--5-----------o||-------|-------|
-----5M----------8-----8----|-----5-----------8--6--5---||--1L---|--1----|
----------------------------|---------------------------||--1L---|--1----|

                                                Prechorus
-------|-------|-------|-------|-------|-------|----------------------------|
-------|-------|-------|-------|-------|-------|----------------------------|
-------|-------|-------|-------|-------|-------|--------------8--8--8--8----|
-------|-------|-------|-------|-------|-------|----------------------------|
--1L---|--1----|--5L---|--5----|--3L---|--3----|--0--0--0--0--6--6--6--6----|
--1L---|--1----|--5L---|--5----|--3L---|--3----|--0--0--0--0----------------|


----------------------------|----------------------------|
----------------------------|----------------------------|
--7--7--7--7--7--7--7--7----|--------------8--8--8--8----|
----------------------------|----------------------------|
--5--5--5--5--5--5--5--5----|--0--0--0--0--6--6--6--6----|
----------------------------|--0--0--0--0----------------|
     
                             Chorus
----------------------------|----------------------------|
----------------------------|----------------------------|
--10-10-10-10-10-10-10-10---|----------------------------|
----------------------------|----------------------------|
--8--8--8--8--8--8--8--8----|--5--5--5--5--5--5--5--5----|
----------------------------|--5--5--5--5--5--5--5--5----|


----------------------------|----------------------------|
----------------------------|----------------------------|
----------------------------|----------------------------|
----------------------------|----------------------------|
--5--5--5--5--5--5--5--5----|--3--3--3--3--3--3--3--3----|
--5--5--5--5--5--5--5--5----|--3--3--3--3--3--3--3--3----|


----------------------------|----------------------------|
----------------------------|----------------------------|
----------------------------|----------------------------|
----------------------------|----------------------------|
--3--3--3--3--3--3--3--3----|--1--1--1--1--1--1--1--1----|
--3--3--3--3--3--3--3--3----|--1--1--1--1--1--1--1--1----|


----------------------------|----------------------------|
----------------------------|----------------------------|
----------------------------|----------------------------|
----------------------------|----------------------------|
--1--1--1--1--1--1--1--1----|--1--1--1--1--1--1--1--1----|
--1--1--1--1--1--1--1--1----|--1--1--1--1--1--1--1--1----|


----------------------------|----------------------------|
----------------------------|----------------------------|
----------------------------|----------------------------|
----------------------------|----------------------------|
--3--3--3--3--3--3--3--3----|--5--5--5--5--5--5--5--5----|
--3--3--3--3--3--3--3--3----|--5--5--5--5--5--5--5--5----|


----------------------------|----------------------------|
----------------------------|----------------------------|
----------------------------|----------------------------|
----------------------------|----------------------------|
--5--5--5--5--5--5--5--5----|--3--3--3--3--3--3--3--3----|
--5--5--5--5--5--5--5--5----|--3--3--3--3--3--3--3--3----|


----------------------------|----------------------------|
----------------------------|----------------------------|
----------------------------|----------------------------|
----------------------------|----------------------------|
--3--3--3--3--3--3--3--3----|--1--1--1--1--1--1--1--1----|
--3--3--3--3--3--3--3--3----|--1--1--1--1--1--1--1--1----|


----------------------------|----------------------------|-------||
----------------------------|----------------------------|-------||
----------------------------|----------------------------|-------||
----------------------------|----------------------------|-------||
--1--1--1--1--1--1--1--1----|--1--1--1--1--1--1--1--1----|--3----||
--1--1--1--1--1--1--1--1----|--1--1--1--1--1--1--1--1----|--3----||

Bridge (x4)                                              Section
---------------------------|---------------------------||----------------|
---------------------------|---------------------------||----------------|
o--------------------------|--------------------------o||-----2--3--5s---|
o7-----------------7--7----|-----------------5-----7--o||--0-------------|
-5-----------------6--5----|-----------------3-----6---||----------------|
----0M-0M-0M-0M-0M---------|--0M-0M-0M-0M-0M----0M-----||----------------|
                      
                                                                2nd Verse
----------------|----------------|----------------------------||------|-------|
----------------|----------------|----------------------------||------|-------|
--7--5--3--2----|-----2--3--5----|--3--2----------------------||o-----|-------|
----------------|--0-------------|--------5--3----------------||o-----|-------|
----------------|----------------|--------------0M-0M---------||-1L---|--1----|
----------------|----------------|--------------0M-0M---------||-1L---|--1----|


-------|-------|----------------------------|----------------------------|
-------|-------|----------------------------|----------------------------|
-------|-------|----------------------------|-----------------5-----5----|
-------|-------|--5M----8M-7M---------------|--5M----8M-7M---------------|
--1L---|--1----|-----5M----------8-----8----|-----5M---------------------|
--1L---|--1----|----------------------------|----------------------------|


----------------------------|---------------------------||
----------------------------|---------------------------||
----------------------------|--------------------------o||
--5M----8M-7M---------------|--5-----8--7--5-----------o||
-----5M----------8-----8----|-----5-----------8--6--5---||
----------------------------|---------------------------||

2nd Prechorus
----------------------------|----------------------------|
----------------------------|----------------------------|
--------------8--8--8--8----|--7--7--7--7--7--7--7--7----|
----------------------------|----------------------------|
--0--0--0--0--6--6--6--6----|--5--5--5--5--5--5--5--5----|
--0--0--0--0----------------|----------------------------|


----------------------------|----------------------------|
----------------------------|----------------------------|
--------------8--8--8--8----|--7--7--7--7--7--7--7--7----|
----------------------------|----------------------------|
--0--0--0--0--6--6--6--6----|--5--5--5--5--5--5--5--5----|
--0--0--0--0----------------|----------------------------|


----------------------------|----------------------------|
----------------------------|----------------------------|
--------------8--8--8--8----|--10-10-10-10-10-10-10-10---|
----------------------------|----------------------------|
--0--0--0--0--6--6--6--6----|--8--8--8--8--8--8--8--8----|
--0--0--0--0----------------|----------------------------|

Chorus
----------------------------|----------------------------|
----------------------------|----------------------------|
----------------------------|----------------------------|
----------------------------|----------------------------|
--5--5--5--5--5--5--5--5----|--5--5--5--5--5--5--5--5----|
--5--5--5--5--5--5--5--5----|--5--5--5--5--5--5--5--5----|


----------------------------|----------------------------|
----------------------------|----------------------------|
----------------------------|----------------------------|
----------------------------|----------------------------|
--3--3--3--3--3--3--3--3----|--3--3--3--3--3--3--3--3----|
--3--3--3--3--3--3--3--3----|--3--3--3--3--3--3--3--3----|


----------------------------|----------------------------|
----------------------------|----------------------------|
----------------------------|----------------------------|
----------------------------|----------------------------|
--1--1--1--1--1--1--1--1----|--1--1--1--1--1--1--1--1----|
--1--1--1--1--1--1--1--1----|--1--1--1--1--1--1--1--1----|


----------------------------|----------------------------|
----------------------------|----------------------------|
----------------------------|----------------------------|
----------------------------|----------------------------|
--1--1--1--1--1--1--1--1----|--3--3--3--3--3--3--3--3----|
--1--1--1--1--1--1--1--1----|--3--3--3--3--3--3--3--3----|


----------------------------|----------------------------|
----------------------------|----------------------------|
----------------------------|----------------------------|
----------------------------|----------------------------|
--5--5--5--5--5--5--5--5----|--5--5--5--5--5--5--5--5----|
--5--5--5--5--5--5--5--5----|--5--5--5--5--5--5--5--5----|


----------------------------|----------------------------|
----------------------------|----------------------------|
----------------------------|----------------------------|
----------------------------|----------------------------|
--3--3--3--3--3--3--3--3----|--3--3--3--3--3--3--3--3----|
--3--3--3--3--3--3--3--3----|--3--3--3--3--3--3--3--3----|


----------------------------|----------------------------|
----------------------------|----------------------------|
----------------------------|----------------------------|
----------------------------|----------------------------|
--1--1--1--1--1--1--1--1----|--1--1--1--1--1--1--1--1----|
--1--1--1--1--1--1--1--1----|--1--1--1--1--1--1--1--1----|

                                     Section
----------------------------|-------|----------------------------||
----------------------------|-------|----------------------------||
----------------------------|-------|----------------------------||
----------------------------|-------|----------------------------||
--1--1--1--1--1--1--1--1----|--3----|--0-----0M-0M-0M-0M-0M-0M---||
--1--1--1--1--1--1--1--1----|--3----|--0-----0M-0M-0M-0M-0M-0M---||

Bridge (x4)
---------------------------|---------------------------||
---------------------------|---------------------------||
o--------------------------|--------------------------o||
o7-----------------7--7----|-----------------5-----7--o||
-5-----------------6--5----|-----------------3-----6---||
----0M-0M-0M-0M-0M---------|--0M-0M-0M-0M-0M----0M-----||

Guitar Solo
--------15~-----------------|----------------------------|
-----------------15~--------|--13~------15L---15~--------|
----------------------------|----------------------------|
----------------------------|----------------------------|
----------------------------|----------------------------|
----------------------------|----------------------------|


----------------------------|----------------------------|
----------------------------|----------------------------|
--3h-2-----7h-5-----8h-7----|-----7--5-----5h-3s-2-------|
----------------------------|----------------------------|
----------------------------|----------------------------|
----------------------------|----------------------------|


----------------------------|----------------------------|
----------------------------|-----13h8h-6--15h8h-6h-8----|
--12h7h-5--14h7h-5--15h7h---|--5-------------------------|
----------------------------|----------------------------|
----------------------------|----------------------------|
----------------------------|----------------------------|


--------------11-11-11-11---|--10-10-10-10---------------|
--6--6--6--6----------------|--------------10-10-10-10---|
----------------------------|----------------------------|
----------------------------|----------------------------|
----------------------------|----------------------------|
----------------------------|----------------------------|


--------------10h13h18-13-10------------|
-----------11----------------11---------|
--------10----------------------10------|
-----12----------------------------12---|
--13------------------------------------|
----------------------------------------|


--20h17----------------------17h20------|--18-------------18----20L--|
--------18----------------18------------|--------18------------------|
-----------17----------17---------------|-----------17---------------|
--------------19----19------------------|----------------------------|
-----------------20---------------------|----------------------------|
----------------------------------------|----------------------------|


--20-18-17-18s--|--22-22-22-22-22-22-22-22-20-20-20-20-18-18-18-18L--|
----------------|----------------------------------------------------|
----------------|----------------------------------------------------|
----------------|----------------------------------------------------|
----------------|----------------------------------------------------|
----------------|----------------------------------------------------|


--18~---------------------10-10-10-10-13-13-13-13---|--13~--|
----------------------------------------------------|-------|
----------------------------------------------------|-------|
----------------------------------------------------|-------|
----------------------------------------------------|-------|
----------------------------------------------------|-------|

                                          Middle Eight
--15-13-11------------------------------||-6-----6-----6--6--6--6----|
-----------15-13-11---------------------||-8-----8-----8--8--8--8L---|
--------------------14-12-10------------||o7-----7-----7--7--7--7L---|
-----------------------------13-12-10---||o8-----8-----8--8--8--8L---|
----------------------------------------||-6-----6-----6--6--6--6L---|
----------------------------------------||---------------------------|


--6-----6-----6--6--6--6----|--5-----5-----5--5--5--5L---|
--8-----8-----8--8--8--8----|--6-----6-----6--6--6--6L---|
--7-----7-----7--7--7--7----|--5-----5-----5--5--5--5L---|
--8-----8-----8--8--8--8----|--7-----7-----7--7--7--7L---|
--6-----6-----6--6--6--6----|--5-----5-----5--5--5--5L---|
----------------------------|----------------------------|


--5-----5-----5--5--5--5---||--6-----6-----6--6--6--6L---|
--6-----6-----6--6--6--6---||--8-----8-----8--8--8--8L---|
--5-----5-----5--5--5--5--o||--7-----7-----7--7--7--7L---|
--7-----7-----7--7--7--7--o||--8-----8-----8--8--8--8L---|
--5-----5-----5--5--5--5---||--6-----6-----6--6--6--6L---|
---------------------------||----------------------------|


--6-----6-----6--6--6--6----|--6----|--6L---|--6L---|--6L---|--6----|
--8-----8-----8--8--8--8----|--8----|--7L---|--7L---|--7L---|--7----|
--7-----7-----7--7--7--7----|--7----|--6L---|--6L---|--6L---|--6----|
--8-----8-----8--8--8--8----|--8----|--8L---|--8L---|--8L---|--8----|
--6-----6-----6--6--6--6----|--6----|--6L---|--6L---|--6L---|--6----|
----------------------------|-------|-------|-------|-------|-------|

Final Chorus
----------------------------|----------------------------|
----------------------------|----------------------------|
----------------------------|----------------------------|
----------------------------|----------------------------|
--5--5--5--5--5--5--5--5----|--5--5--5--5--5--5--5--5----|
--5--5--5--5--5--5--5--5----|--5--5--5--5--5--5--5--5----|


----------------------------|----------------------------|
----------------------------|----------------------------|
----------------------------|----------------------------|
----------------------------|----------------------------|
--3--3--3--3--3--3--3--3----|--3--3--3--3--3--3--3--3----|
--3--3--3--3--3--3--3--3----|--3--3--3--3--3--3--3--3----|


----------------------------|----------------------------|
----------------------------|----------------------------|
----------------------------|----------------------------|
----------------------------|----------------------------|
--1--1--1--1--1--1--1--1----|--1--1--1--1--1--1--1--1----|
--1--1--1--1--1--1--1--1----|--1--1--1--1--1--1--1--1----|


----------------------------|----------------------------|
----------------------------|----------------------------|
----------------------------|----------------------------|
----------------------------|----------------------------|
--1--1--1--1--1--1--1--1----|--3--3--3--3--3--3--3--3----|
--1--1--1--1--1--1--1--1----|--3--3--3--3--3--3--3--3----|


----------------------------|----------------------------|
----------------------------|----------------------------|
----------------------------|----------------------------|
----------------------------|----------------------------|
--5--5--5--5--5--5--5--5----|--5--5--5--5--5--5--5--5----|
--5--5--5--5--5--5--5--5----|--5--5--5--5--5--5--5--5----|


----------------------------|----------------------------|
----------------------------|----------------------------|
----------------------------|----------------------------|
----------------------------|----------------------------|
--3--3--3--3--3--3--3--3----|--3--3--3--3--3--3--3--3----|
--3--3--3--3--3--3--3--3----|--3--3--3--3--3--3--3--3----|


----------------------------|----------------------------|
----------------------------|----------------------------|
----------------------------|----------------------------|
----------------------------|----------------------------|
--1--1--1--1--1--1--1--1----|--1--1--1--1--1--1--1--1----|
--1--1--1--1--1--1--1--1----|--1--1--1--1--1--1--1--1----|


----------------------------|-------||
----------------------------|-------||
----------------------------|-------||
----------------------------|-------||
--1--1--1--1--1--1--1--1----|--3----||
--1--1--1--1--1--1--1--1----|--3----||
Добавлено: 04.04.2016
Вам также может быть интересно:
Другие материалы по этой песне:
  • Аккорды и текст

Страница создана 04.04.2016
http://primanota.ru/esprit-dair/shizuku-chords.htm
Привет, Гость.
Предлагаем пройти революционный курс по гитаре.
Подарок от PrimaNota.Ru, забирай!