PrimaNota.ru - самый крупный в мире бесплатный архив песенных текстов, аккордов, табулатур и нот


Esprit D'Air - The Hunter - таба, бас-таба, видео

Регистрация Запомнить меня
Войти через:  Facebook Google Twitter Vk Yandex Mail.ru

Esprit D'Air - The Hunter - таба, бас-таба, видео

Печатать
Просмотров: 66
Уроки эстрадного вокала в Санкт-Петербурге
Title: The Hunter
Artist: Esprit D'Air
Album: The Hunter
Music: Esprit D'Air
Copyright: Esprit D'Air
Tempo = 190

Legend
L - tied note
x - dead note
h - hammer on/pull off
b - bend
s - slide
~ - vibrato
g - ghost note
> - accentuated note
t - trill
M - palm mute
. - staccato
P - popping (bass)
S - slapping (bass)
+ - tapping
W - wide vibrato
< - fade in
w - whammy bar
= - tremolo picking
v - brush up
^ - brush down
V - pick stroke up
n - pick stroke down

                                                             
D#|----------------------------|----------------------------|
A#|----------------------------|----------------------------|
F#|----------------------------|----------------------------|
C#|----------------------------|----------------------------|
G#|----------------------------|----------------------------|
C#|--1--0--2--3--1--0--1--0----|--2--3--1--0--1--0--2--3----|

                                                                  
----------------------------|-------|----------------------------|
----------------------------|-------|----------------------------|
----------------------------|-------|----------------------------|
----------------------------|-------|--1-----0--1-----0--1-------|
----------------------------|-------|--1-----0--1-----0--1-------|
--1--0--2--3--1--0--1--0----|--1b---|--1-----0--1-----0--1-------|

                                                          
----------------------------|----------------------------|
----------------------------|----------------------------|
----------------------------|----------------------------|
--0--1-----0--1-----0--1L---|--1--0--1-----0--1-----0----|
--0--1-----0--1-----0--1L---|--1--0--1-----0--1-----0----|
--0--1-----0--1-----0--1L---|--1--0--1-----0--1-----0----|

                                                          
----------------------------|----------------------------|
----------------------------|----------------------------|
----------------------------|----------------------------|
--1-----0M-0M-0M-0M-1-------|--1-----0--1-----0--1-------|
--1-----0M-0M-0M-0M-1-------|--1-----0--1-----0--1-------|
--1-----0M-0M-0M-0M-1-------|--1-----0--1-----0--1-------|

                                                          
----------------------------|----------------------------|
----------------------------|----------------------------|
----------------------------|----------------------------|
--0--1-----0--1-----0--1L---|--1--0--1-----0--1-----0----|
--0--1-----0--1-----0--1L---|--1--0--1-----0--1-----0----|
--0--1-----0--1-----0--1L---|--1--0--1-----0--1-----0----|

                                                          
----------------------------|----------------------------|
----------------------------|----------------------------|
----------------------------|----------------------------|
--1-----0M-0M-0M-0M-1-------|--1M-1M-0M-1M-1M-0M-1M-1M---|
--1-----0M-0M-0M-0M-1-------|--1M-1M-0M-1M-1M-0M-1M-1M---|
--1-----0M-0M-0M-0M-1-------|--1M-1M-0M-1M-1M-0M-1M-1M---|

                                                          
----------------------------|----------------------------|
----------------------------|----------------------------|
----------------------------|----------------------------|
--0M-1M-1M-0M-1M-1M-0M-1M---|--1M-0M-1M-1M-0M-1M-1M-0M---|
--0M-1M-1M-0M-1M-1M-0M-1M---|--1M-0M-1M-1M-0M-1M-1M-0M---|
--0M-1M-1M-0M-1M-1M-0M-1M---|--1M-0M-1M-1M-0M-1M-1M-0M---|

                                                          
----------------------------|----------------------------|
----------------------------|----------------------------|
--5-------------------------|----------------------------|
--5-----0M-0M-0M-0M-1-------|--1M-1M-0M-1M-1M-0M-1M-1M---|
--3-----0M-0M-0M-0M-1-------|--1M-1M-0M-1M-1M-0M-1M-1M---|
--------0M-0M-0M-0M-1-------|--1M-1M-0M-1M-1M-0M-1M-1M---|

                                                          
----------------------------|----------------------------|
----------------------------|----------------------------|
----------------------------|----------------------------|
--0M-1M-1M-0M-1M-1M-0M-1M---|--1M-0M-1M-1M-0M-1M-1M-0M---|
--0M-1M-1M-0M-1M-1M-0M-1M---|--1M-0M-1M-1M-0M-1M-1M-0M---|
--0M-1M-1M-0M-1M-1M-0M-1M---|--1M-0M-1M-1M-0M-1M-1M-0M---|

                                                          
----------------------------|----------------------------|
----------------------------|----------------------------|
--7-------------------------|----------------------------|
--7-----0M-0M-0M-0M-1-------|----------------------------|
--5-----0M-0M-0M-0M-1-------|----------------------------|
--------0M-0M-0M-0M-1-------|--1--0--2--3--1--0--1--0----|

                             
----------------------------|
----------------------------|
----------------------------|
----------------------------|
----------------------------|
--2--3--1--0--1--0--2--3----|

                                                     
----------------------------------------------------|
----------------------------------------------------|
----------------------------------------------------|
----------------------------------------------------|
----------------------------------------------------|
--1M-1M-0M-0M-2M-2M-3M-3M-1M-1M-0M-0M-1M-1M-0M-0M---|

                                                     
----------------------------------------------------|
----------------------------------------------------|
----------------------------------------------------|
----------------------------------------------------|
----------------------------------------------------|
--2M-2M-3M-3M-1M-1M-0M-0M-1M-1M-0M-0M-2M-2M-3M-3M---|

                                                          
----------------------------|----------------------------|
----------------------------|----------------------------|
----------------------------|----------------------------|
--1--0--2--3--1--0--1--0----|--2--3--1--0--1--0--2--3----|
--1--0--2--3--1--0--1--0----|--2--3--1--0--1--0--2--3----|
--1--0--2--3--1--0--1--0----|--2--3--1--0--1--0--2--3----|

                                                                             
----------------------------|----------------|----------------------|-------|
----------------------------|----------------|--------------8s-10---|--8~---|
----------------------------|----------------|--------7-------------|-------|
--1--0--2--3--1--0--1--0----|--0-------------|--8s------------------|-------|
--1--0--2--3--1--0--1--0----|--0-------------|----------------------|-------|
--1--0--2--3--1--0--1--0----|--0-------------|----------------------|-------|

                                                                            
-------------|-------------|-------|-------|-------|-------|--13---|--13b--|
--------13s--|--15-13------|-------|-------|-------|--13---|-------|-------|
-------------|--------14s--|--15L--|--15L--|--15~--|-------|-------|-------|
--10s12------|-------------|-------|-------|-------|-------|-------|-------|
-------------|-------------|-------|-------|-------|-------|-------|-------|
-------------|-------------|-------|-------|-------|-------|-------|-------|

                                                                               
-------|--10---|--13L--|--13---|-------|--10---|----------------------|-------|
--13---|--13b--|-------|-------|--13---|--13b--|--------------8s-10---|--8~---|
-------|-------|-------|-------|-------|-------|--------7-------------|-------|
-------|-------|-------|-------|-------|-------|--8s------------------|-------|
-------|-------|-------|-------|-------|-------|----------------------|-------|
-------|-------|-------|-------|-------|-------|----------------------|-------|

                                                                            
-------------|-------------|-------|-------|-------|-------|--13---|--13b--|
--------13s--|--15-13------|-------|-------|-------|--13---|-------|-------|
-------------|--------14s--|--15L--|--15L--|--15~--|-------|-------|-------|
--10s12------|-------------|-------|-------|-------|-------|-------|-------|
-------------|-------------|-------|-------|-------|-------|-------|-------|
-------------|-------------|-------|-------|-------|-------|-------|-------|

                                                                      
-------|--10---|--13L--|--13---|-------|--10---|--10-10---|--10-10---|
--13---|--13b--|-------|-------|--13---|--13b--|--13b-----|--13b-----|
-------|-------|-------|-------|-------|-------|----------|----------|
-------|-------|-------|-------|-------|-------|----------|----------|
-------|-------|-------|-------|-------|-------|----------|----------|
-------|-------|-------|-------|-------|-------|----------|----------|

                                                                           
--10-10---|--13-13------|--10-10---|--10-10---|--13-10------|--17-13------|
--13b-----|--------13---|--13b-----|--13b-----|--------13---|--------15---|
----------|-------------|----------|----------|-------------|-------------|
----------|-------------|----------|----------|-------------|-------------|
----------|-------------|----------|----------|-------------|-------------|
----------|-------------|----------|----------|-------------|-------------|

                                                                     
----------------------|----------------------|----------------------|
----------------------|----------------------|----------------------|
--12-12-12-12-12-12---|--10-10-10-10-10-10---|--14-14-14-14-14-14---|
----------------------|----------------------|----------------------|
--10-10-10-10-10-10---|--8--8--8--8--8--8----|--12-12-12-12-12-12---|
----------------------|----------------------|----------------------|

                                                                     
----------------------|----------------------|----------------------|
----------------------|----------------------|----------------------|
--17-17-17-17-17-17---|--15-15-15-15-15-15---|--15-15-15-15-15-15---|
----------------------|----------------------|----------------------|
--15-15-15-15-15-15---|--13-13-13-13-13-13---|--13-13-13-13-13-13---|
----------------------|----------------------|----------------------|

                                                                     
----------------------|----------------------|----------------------|
----------------------|----------------------|----------------------|
--19-19-19-19-19-19---|--19-19-19-19-19-19---|--10-10-10-10-10-10---|
----------------------|----------------------|----------------------|
--17-17-17-17-17-17---|--17-17-17-17-17-17---|--8--8--8--8--8--8----|
----------------------|----------------------|----------------------|

                                                                     
----------------------|----------------------|----------------------|
----------------------|----------------------|----------------------|
--12-12-12-12-12-12---|--5--5--5--5--5--5----|--10-10-10-10-10-10---|
----------------------|----------------------|----------------------|
--10-10-10-10-10-10---|--3--3--3--3--3--3----|--8--8--8--8--8--8----|
----------------------|----------------------|----------------------|

                                                                     
----------------------|----------------------|----------------------|
----------------------|----------------------|----------------------|
--7--7--7--7--7--7----|--7--7--7--7--7--7----|--17-17-17-17-17-17---|
----------------------|----------------------|----------------------|
--5--5--5--5--5--5----|--5--5--5--5--5--5----|--15-15-15-15-15-15---|
----------------------|----------------------|----------------------|

                                                                
----------------------|----------------------------------------|
----------------------|----------------------------------------|
--17-17-17-17-17-17---|----------------------------------------|
----------------------|----------------------------------------|
--15-15-15-15-15-15---|--5--5--5--5--5--5--5-------------------|
----------------------|--5--5--5--5--5--5--5-------------------|

                                              
----------------------|----------------------|
----------------------|----------------------|
----------------------|----------------------|
----------------------|----------------------|
--5--5--5--5--5--5----|--3--3--3--3----------|
--5--5--5--5--5--5----|--3--3--3--3----------|

                                                                
----------------------------------------|----------------------|
----------------------------------------|----------------------|
----------------------------------------|----------------------|
----------------------------------------|----------------------|
--0--0--0--0--0--0--0--0--0--0--0--0----|--1--1--1--1----------|
--0--0--0--0--0--0--0--0--0--0--0--0----|--1--1--1--1----------|

                                                                     
----------------------|----------------------|----------------------|
----------------------|----------------------|----------------------|
----------------------|----------------------|----------------------|
----------------------|----------------------|----------------------|
--1--1--1--1--1--1----|--3--3--3--3----------|--3--3--3--3--3--3----|
--1--1--1--1--1--1----|--3--3--3--3----------|--3--3--3--3--3--3----|

                                                                
----------------------------------------|----------------------|
----------------------------------------|----------------------|
--3--3--3--3--3--3--3-------------------|--3--3--3--3--3--3----|
----------------------------------------|----------------------|
--1--1--1--1--1--1--1-------------------|--1--1--1--1--1--1----|
----------------------------------------|----------------------|

                                                                
----------------------|----------------------------------------|
----------------------|----------------------------------------|
--2--2--2--2----------|--5--5--5--5--5--5--5--5--5--5--5--5----|
----------------------|----------------------------------------|
--0--0--0--0----------|--3--3--3--3--3--3--3--3--3--3--3--3----|
----------------------|----------------------------------------|

                                                                     
----------------------|----------------------|----------------------|
----------------------|----------------------|----------------------|
--3--3--3--3----------|--3--3--3--3--3--3----|--7--7--7--7----------|
----------------------|----------------------|----------------------|
--1--1--1--1----------|--1--1--1--1--1--1----|--5--5--5--5----------|
----------------------|----------------------|----------------------|

                                                                    
----------------------|----------------------|-------|-------------|
----------------------|--------------8s-10---|--8~---|--------13s--|
--7--7--7--7--7--7----|--------7-------------|-------|-------------|
----------------------|--8s------------------|-------|--10s12------|
--5--5--5--5--5--5----|----------------------|-------|-------------|
----------------------|----------------------|-------|-------------|

                                                                              
-------------|-------|-------|-------|-------|--13---|--13b--|-------|--10---|
--15-13------|-------|-------|-------|--13---|-------|-------|--13---|--13b--|
--------14s--|--15L--|--15L--|--15~--|-------|-------|-------|-------|-------|
-------------|-------|-------|-------|-------|-------|-------|-------|-------|
-------------|-------|-------|-------|-------|-------|-------|-------|-------|
-------------|-------|-------|-------|-------|-------|-------|-------|-------|

                                                                             
--13L--|--13---|-------|--10---|----------------------|-------|-------------|
-------|-------|--13---|--13b--|--------------8s-10---|--8~---|--------13s--|
-------|-------|-------|-------|--------7-------------|-------|-------------|
-------|-------|-------|-------|--8s------------------|-------|--10s12------|
-------|-------|-------|-------|----------------------|-------|-------------|
-------|-------|-------|-------|----------------------|-------|-------------|

                                                                              
-------------|-------|-------|-------|-------|--13---|--13b--|-------|--10---|
--15-13------|-------|-------|-------|--13---|-------|-------|--13---|--13b--|
--------14s--|--15L--|--15L--|--15~--|-------|-------|-------|-------|-------|
-------------|-------|-------|-------|-------|-------|-------|-------|-------|
-------------|-------|-------|-------|-------|-------|-------|-------|-------|
-------------|-------|-------|-------|-------|-------|-------|-------|-------|

                                                                              
--13L--|--13---|-------|--10---|----------------------|----------------------|
-------|-------|--13---|--13b--|----------------------|----------------------|
-------|-------|-------|-------|--12-12-12-12-12-12---|--10-10-10-10-10-10---|
-------|-------|-------|-------|----------------------|----------------------|
-------|-------|-------|-------|--10-10-10-10-10-10---|--8--8--8--8--8--8----|
-------|-------|-------|-------|----------------------|----------------------|

                                                                     
----------------------|----------------------|----------------------|
----------------------|----------------------|----------------------|
--14-14-14-14-14-14---|--17-17-17-17-17-17---|--15-15-15-15-15-15---|
----------------------|----------------------|----------------------|
--12-12-12-12-12-12---|--15-15-15-15-15-15---|--13-13-13-13-13-13---|
----------------------|----------------------|----------------------|

                                                                     
----------------------|----------------------|----------------------|
----------------------|----------------------|----------------------|
--15-15-15-15-15-15---|--19-19-19-19-19-19---|--19-19-19-19-19-19---|
----------------------|----------------------|----------------------|
--13-13-13-13-13-13---|--17-17-17-17-17-17---|--17-17-17-17-17-17---|
----------------------|----------------------|----------------------|

                                                                     
----------------------|----------------------|----------------------|
----------------------|----------------------|----------------------|
--10-10-10-10-10-10---|--12-12-12-12-12-12---|--5--5--5--5--5--5----|
----------------------|----------------------|----------------------|
--8--8--8--8--8--8----|--10-10-10-10-10-10---|--3--3--3--3--3--3----|
----------------------|----------------------|----------------------|

                                                                     
----------------------|----------------------|----------------------|
----------------------|----------------------|----------------------|
--10-10-10-10-10-10---|--7--7--7--7--7--7----|--7--7--7--7--7--7----|
----------------------|----------------------|----------------------|
--8--8--8--8--8--8----|--5--5--5--5--5--5----|--5--5--5--5--5--5----|
----------------------|----------------------|----------------------|

                                              
----------------------|----------------------|
----------------------|----------------------|
--17-17-17-17-17-17---|--17-17-17-17-17-17---|
----------------------|----------------------|
--15-15-15-15-15-15---|--15-15-15-15-15-15---|
----------------------|----------------------|

                                                                
----------------------------------------|----------------------|
----------------------------------------|----------------------|
----------------------------------------|----------------------|
----------------------------------------|----------------------|
--5--5--5--5--5--5--5-------------------|--5--5--5--5--5--5----|
--5--5--5--5--5--5--5-------------------|--5--5--5--5--5--5----|

                                                                
----------------------|----------------------------------------|
----------------------|----------------------------------------|
----------------------|----------------------------------------|
----------------------|----------------------------------------|
--3--3--3--3----------|--0--0--0--0--0--0--0--0--0--0--0--0----|
--3--3--3--3----------|--0--0--0--0--0--0--0--0--0--0--0--0----|

                                                                     
----------------------|----------------------|----------------------|
----------------------|----------------------|----------------------|
----------------------|----------------------|----------------------|
----------------------|----------------------|----------------------|
--1--1--1--1----------|--1--1--1--1--1--1----|--3--3--3--3----------|
--1--1--1--1----------|--1--1--1--1--1--1----|--3--3--3--3----------|

                                                                
----------------------|----------------------------------------|
----------------------|----------------------------------------|
----------------------|--3--3--3--3--3--3--3-------------------|
----------------------|----------------------------------------|
--3--3--3--3--3--3----|--1--1--1--1--1--1--1-------------------|
--3--3--3--3--3--3----|----------------------------------------|

                                              
----------------------|----------------------|
----------------------|----------------------|
--3--3--3--3--3--3----|--2--2--2--2----------|
----------------------|----------------------|
--1--1--1--1--1--1----|--0--0--0--0----------|
----------------------|----------------------|

                                                                
----------------------------------------|----------------------|
----------------------------------------|----------------------|
--5--5--5--5--5--5--5--5--5--5--5--5----|--3--3--3--3----------|
----------------------------------------|----------------------|
--3--3--3--3--3--3--3--3--3--3--3--3----|--1--1--1--1----------|
----------------------------------------|----------------------|

                                                                             
----------------------|----------------------|----------------------|--10---|
----------------------|----------------------|----------------------|--13b--|
--3--3--3--3--3--3----|--7--7--7--7----------|--7--7--7--7--7--7----|-------|
----------------------|----------------------|----------------------|-------|
--1--1--1--1--1--1----|--5--5--5--5----------|--5--5--5--5--5--5----|-------|
----------------------|----------------------|----------------------|-------|

                                                                     
--10---|--10-10---|--13-13------|--10-10---|--10-10---|--13-10------|
--13b--|--13b-----|--------13---|--13b-----|--13b-----|--------13---|
-------|----------|-------------|----------|----------|-------------|
-------|----------|-------------|----------|----------|-------------|
-------|----------|-------------|----------|----------|-------------|
-------|----------|-------------|----------|----------|-------------|

                                                                    
--17----13------------|----------------------|-------|-------------|
--------------15------|--------------8s-10---|--8~---|--------13s--|
----------------------|--------7-------------|-------|-------------|
----------------------|--8s------------------|-------|--10s12------|
----------------------|----------------------|-------|-------------|
----------------------|----------------------|-------|-------------|

                                                                              
-------------|-------|-------|-------|-------|--13---|--13b--|-------|--10---|
--15-13------|-------|-------|-------|--13---|-------|-------|--13---|--13b--|
--------14s--|--15L--|--15L--|--15~--|-------|-------|-------|-------|-------|
-------------|-------|-------|-------|-------|-------|-------|-------|-------|
-------------|-------|-------|-------|-------|-------|-------|-------|-------|
-------------|-------|-------|-------|-------|-------|-------|-------|-------|

                                                                             
--13L--|--13---|-------|--10---|----------------------|-------|-------------|
-------|-------|--13---|--13b--|--------------8s-10---|--8~---|--------13s--|
-------|-------|-------|-------|--------7-------------|-------|-------------|
-------|-------|-------|-------|--8s------------------|-------|--10s12------|
-------|-------|-------|-------|----------------------|-------|-------------|
-------|-------|-------|-------|----------------------|-------|-------------|

                                                                              
-------------|-------|-------|-------|-------|--13---|--13b--|-------|--10---|
--15-13------|-------|-------|-------|--13---|-------|-------|--13---|--13b--|
--------14s--|--15L--|--15L--|--15~--|-------|-------|-------|-------|-------|
-------------|-------|-------|-------|-------|-------|-------|-------|-------|
-------------|-------|-------|-------|-------|-------|-------|-------|-------|
-------------|-------|-------|-------|-------|-------|-------|-------|-------|

                                                                                
--13L--|--13---|-------|--10---|-------|-------|-------|-------|-------|-------|
-------|-------|--13---|--13b--|--8L---|--8L---|--8L---|--8L---|--8L---|--8~---|
-------|-------|-------|-------|--7L---|--7L---|--7L---|--7L---|--7L---|--7----|
-------|-------|-------|-------|-------|-------|-------|-------|-------|-------|
-------|-------|-------|-------|-------|-------|-------|-------|-------|-------|
-------|-------|-------|-------|-------|-------|-------|-------|-------|-------|

                                                                                
----|----|----|----|----|----|----|----|----|----|----|----|----|----|----|----|
----|----|----|----|----|----|----|----|----|----|----|----|----|----|----|----|
----|----|----|----|----|----|----|----|----|----|----|----|----|----|----|----|
----|----|----|----|----|----|----|----|----|----|----|----|----|----|----|----|
----|----|----|----|----|----|----|----|----|----|----|----|----|----|----|----|
----|----|----|----|----|----|----|----|----|----|----|----|----|----|----|----|

                                                                                
----|----|----|----|----|----|----|----|----|----|----|----|----|----|----|----|
----|----|----|----|----|----|----|----|----|----|----|----|----|----|----|----|
----|----|----|----|----|----|----|----|----|----|----|----|----|----|----|----|
----|----|----|----|----|----|----|----|----|----|----|----|----|----|----|----|
----|----|----|----|----|----|----|----|----|----|----|----|----|----|----|----|
----|----|----|----|----|----|----|----|----|----|----|----|----|----|----|----|

                                                                                
----|----|----|----|----|----|----|----|----|----|----|----|----|----|----|----|
----|----|----|----|----|----|----|----|----|----|----|----|----|----|----|----|
----|----|----|----|----|----|----|----|----|----|----|----|----|----|----|----|
----|----|----|----|----|----|----|----|----|----|----|----|----|----|----|----|
----|----|----|----|----|----|----|----|----|----|----|----|----|----|----|----|
----|----|----|----|----|----|----|----|----|----|----|----|----|----|----|----|

                                                                                
----|----|----|----|----|----|----|----|----|----|----|----|----|----|----|----|
----|----|----|----|----|----|----|----|----|----|----|----|----|----|----|----|
----|----|----|----|----|----|----|----|----|----|----|----|----|----|----|----|
----|----|----|----|----|----|----|----|----|----|----|----|----|----|----|----|
----|----|----|----|----|----|----|----|----|----|----|----|----|----|----|----|
----|----|----|----|----|----|----|----|----|----|----|----|----|----|----|----|

                                                                       
----|----|----|-------|-------|-------|-------|-------|-------|-------|
----|----|----|-------|-------|-------|-------|-------|-------|-------|
----|----|----|-------|-------|-------|-------|-------|-------|-------|
----|----|----|-------|-------|-------|-------|-------|-------|-------|
----|----|----|-------|-------|-------|-------|-------|-------|-------|
----|----|----|-------|-------|-------|-------|-------|-------|-------|

                                                                             
--17L---------17-15---|-------|----------------------|-----------------13---|
----------------------|--18b--|--13b---11-13----13b--|-----13---------------|
----------------------|-------|----------------------|--------------12------|
----------------------|-------|----------------------|----------------------|
----------------------|-------|----------------------|----------------------|
----------------------|-------|----------------------|----------------------|

                                                                      
--13L--|--13------------------|----------------------|-------|--15---|
--13L--|--13----------13h11h--|--10------------------|-------|--18b--|
-------|----------------------|--------12h10s7L------|--7~---|-------|
-------|----------------------|----------------------|-------|-------|
-------|----------------------|----------------------|-------|-------|
-------|----------------------|----------------------|-------|-------|

                                                                         
--15-17-18---|--17---------|--20b---20---|--20----------18-17---|--18~--|
-------------|--------15---|-------------|----------------------|-------|
-------------|-------------|-------------|----------------------|-------|
-------------|-------------|-------------|----------------------|-------|
-------------|-------------|-------------|----------------------|-------|
-------------|-------------|-------------|----------------------|-------|

                                         
----------------------------------------|
----------------------------------------|
-----------------------------8--10-12---|
--------------------8--10-12------------|
-----------8--10-12---------------------|
--10-12-13------------------------------|

                                                                             
-----------------------------10-11-13---|--15---------|-------|--13---------|
--------------------10-11-13------------|--18b--------|-------|--16b--------|
-----------8--10-12---------------------|-------------|-------|-------------|
--8--10-12------------------------------|-------------|-------|-------------|
----------------------------------------|-------------|-------|-------------|
----------------------------------------|-------------|-------|-------------|

                                                            
--10---------|-----------10---------|-----------8----------|
--13b--------|--11b------------11L--|--11-------------10L--|
-------------|----------------------|----------------------|
-------------|----------------------|----------------------|
-------------|----------------------|----------------------|
-------------|----------------------|----------------------|

                                                                           
----------------------------------------------------------|-------|-------|
--10-------------------------10h---11h---10----8L---------|--8~---|-------|
----------------------------------------------------------|-------|--5b---|
----------------------------------------------------------|-------|-------|
----------------------------------------------------------|-------|-------|
----------------------------------------------------------|-------|-------|

                                         
----------------------------------------|
----------------------------------------|
--5b----------3--------------3L---------|
--------------------5-------------------|
----------------------------------------|
----------------------------------------|

                                                                     w
----------------------------------------------------------|-------|-------|
----------------------------------------------------------|-------|-------|
--3-------------------------------------------------------|-------|--5----|
-----------------------------5-----3-----------3----------|--5----|-------|
-----------------------------------------5----------------|-------|-------|
----------------------------------------------------------|-------|-------|


-------|--15-12-9-----------------9--12-15s18L--|--18~--|
-------|----------------------------------------|-------|
--5b---|-----------15-12-9--12-15---------------|-------|
-------|----------------------------------------|-------|
-------|----------------------------------------|-------|
-------|----------------------------------------|-------|


----------------------------|----------------------------|
----------------------------|----------------------------|
----------------------------|----------------------------|
----------------------------|----------------------------|
----------------------------|----------------------------|
--1--0--2--3--1--0--1--0----|--2--3--1--0--1--0--2--3----|


----------------------------|----------------------------|
----------------------------|----------------------------|
----------------------------|----------------------------|
----------------------------|----------------------------|
----------------------------|----------------------------|
--1--0--2--3--1--0--1--0----|--2--3--1--0--1--0--2--3----|


----------------------------|----------------------------|
----------------------------|----------------------------|
----------------------------|----------------------------|
--1-----0--1-----0--1-------|--0--1-----0--1-----0--1L---|
--1-----0--1-----0--1-------|--0--1-----0--1-----0--1L---|
--1-----0--1-----0--1-------|--0--1-----0--1-----0--1L---|


----------------------------|----------------------------|
----------------------------|----------------------------|
----------------------------|----------------------------|
--1--0--1-----0--1-----0----|--1-----0M-0M-0M-0M-1-------|
--1--0--1-----0--1-----0----|--1-----0M-0M-0M-0M-1-------|
--1--0--1-----0--1-----0----|--1-----0M-0M-0M-0M-1-------|


----------------------------|----------------------------|
----------------------------|----------------------------|
----------------------------|----------------------------|
--1-----0--1-----0--1-------|--0--1-----0--1-----0--1L---|
--1-----0--1-----0--1-------|--0--1-----0--1-----0--1L---|
--1-----0--1-----0--1-------|--0--1-----0--1-----0--1L---|


----------------------------|----------------------------|
----------------------------|----------------------------|
----------------------------|----------------------------|
--1--0--1-----0--1-----0----|--1-----0M-0M-0M-0M-1-------|
--1--0--1-----0--1-----0----|--1-----0M-0M-0M-0M-1-------|
--1--0--1-----0--1-----0----|--1-----0M-0M-0M-0M-1-------|


----------------------------|----------------------------|
----------------------------|----------------------------|
----------------------------|----------------------------|
--1M-1M-0M-1M-1M-0M-1M-1M---|--0M-1M-1M-0M-1M-1M-0M-1M---|
--1M-1M-0M-1M-1M-0M-1M-1M---|--0M-1M-1M-0M-1M-1M-0M-1M---|
--1M-1M-0M-1M-1M-0M-1M-1M---|--0M-1M-1M-0M-1M-1M-0M-1M---|


----------------------------|--11------------------------|
----------------------------|--15------------------------|
----------------------------|----------------------------|
--1M-0M-1M-1M-0M-1M-1M-0M---|--------0M-0M-0M-0M-1-------|
--1M-0M-1M-1M-0M-1M-1M-0M---|--------0M-0M-0M-0M-1-------|
--1M-0M-1M-1M-0M-1M-1M-0M---|--------0M-0M-0M-0M-1-------|


----------------------------|----------------------------|
----------------------------|----------------------------|
----------------------------|----------------------------|
--1M-1M-0M-1M-1M-0M-1M-1M---|--0M-1M-1M-0M-1M-1M-0M-1M---|
--1M-1M-0M-1M-1M-0M-1M-1M---|--0M-1M-1M-0M-1M-1M-0M-1M---|
--1M-1M-0M-1M-1M-0M-1M-1M---|--0M-1M-1M-0M-1M-1M-0M-1M---|


----------------------------|--17------------------------|-------|-------|
----------------------------|--21------------------------|-------|-------|
----------------------------|----------------------------|-------|-------|
--1M-0M-1M-1M-0M-1M-1M-0M---|--------0M-0M-0M-0M-1-------|-------|-------|
--1M-0M-1M-1M-0M-1M-1M-0M---|--------0M-0M-0M-0M-1-------|-------|-------|
--1M-0M-1M-1M-0M-1M-1M-0M---|--------0M-0M-0M-0M-1-------|-------|-------|


-------|-------||
-------|-------||
-------|-------||
-------|-------||
-------|-------||
-------|-------||
Добавлено: 06.06.2016
Другие материалы по этой песне:

Страница создана 04.04.2016
http://primanota.ru/esprit-dair/hunter-chords.htm
Привет, Гость.
Предлагаем пройти революционный курс по гитаре.
Подарок от PrimaNota.Ru, забирай!