PrimaNota.ru - самый крупный в мире бесплатный архив песенных текстов, аккордов, табулатур и нот


Espers - Voices - таба, видео

Регистрация Запомнить меня
Войти через:  Facebook Google Twitter Vk Yandex Mail.ru

Espers - Voices - таба, видео

Печатать
Просмотров: 136
VOICES

by:

Artist: Espers
Album: Espers

Tabbed by: Gerben Boersma

NOTE:
I'm still trying to figure out the rest of the song, but I suppose this is a nice start. 
because this is my first tab.

Lead:
e|----------------|----------------|----------------|----------------|
B|--5-----5-----5-|--6-----6-----6-|--9-----9-----9-|9\8---8---9-8-6-|
G|5-----5-----5---|5-----5-----5---|5-----5-----5---|----------------|
D|----------------|----------------|----------------|----------------|
A|----3-----3-----|----3-----3-----|----------------|----------------|
E|----------------|----------------|----------------|----------------|

Backing guitar:
e|----------------|----------------|----------------|----------------|
B|----------------|----------------|----------------|----------------|
G|--7-----7-----7-|--5-----5-----5-|----------------|----------------|
D|----------------|----------------|--6-----6-----6-|6-5---5---6-5-3-|
A|3-----3-----3---|3-----3-----3---|3-----3-----3---|----------------|
E|----------------|----------------|----------------|----------------|

Solo guitar during singing:
e|---------16-15--|16-15-13--------|(8)---8-10--8-10|12--------------|
B|----------------|----------------|----------------|----------------|
G|----------------|----------------|----------------|----------------|
D|----------------|----------------|----------------|----------------|
A|----------------|----------------|----------------|----------------|
E|----------------|----------------|----------------|----------------|

Keyboards:
|E---------------|F---------------|--G#------------|--G-------------|
Добавлено: 21.06.2012
Другие материалы по этой песне:
  • Аккорды и текст

Страница создана 21.06.2012
http://primanota.ru/espers/voices-chords.htm
Привет, Гость.
Предлагаем пройти революционный курс по гитаре.
Подарок от PrimaNota.Ru, забирай!