PrimaNota.ru - самый крупный в мире бесплатный архив песенных текстов, аккордов, табулатур и нот


Esperanza Spalding - Black Gold - аккорды и текст, видео

Регистрация Запомнить меня
Войти через:  Facebook Google Twitter Vk Yandex Mail.ru

Esperanza Spalding - Black Gold - аккорды и текст, видео

Печатать
Просмотров: 142
Уроки эстрадного вокала в Санкт-Петербурге
Black Gold
Esperanza Spalding
-------------------------------------------------------------------------------
                             SONG NAME - black gold esperanza spalding
-------------------------------------------------------------------------------
Tabbed by: Jochem van der Reijden
E-mail:jochemvdr78@gmail.com

Tuning: standard

This tab was hard to get so at least it will get people started. I watched this video 
and simply created this
tab. Please add improvements   here is the link to the video  https://www.youtube.com/watch?v=6SIAUZheC0Y


Chorus (start)

  "hold your...  (2x)       "you are............"   (2x)
e|----5------7------X------X--   -1-------------X----X----------------------------------|
B|----6------8------6------6--   -1-------------6----6----------------------------------|
G|----5------7------7------6--   -2-----8--8----7----6----------------------------------|
D|----5------7------7------5--   -3-----8--7----7----5----------------------------------|
[c----5------7------X------6--   -3-------------X----6----------------------------------|
[c----5------7------6------X--   -1-----8--7----6----X----------------------------------|

Verse
"now maybe..."...)
e|----------------------------------1--------------------------------------------------|
B|-----------4------6-------3--4----1------6----1----6---------------------------------|
G|-----------4------6-------3--4----2------6----2----5---------------------------------|
D|-----------3------6-------2--3----3------6----2----4---------------------------------|
A|-----------4--------------3--4----3----------------5---------------------------------|
E|--3---4-----------6---------------1------6----1--------------------------------------|

"think of all the strenght......." 2x (or more)
e|---3-----5----5------------------------------------------------------------------|
B|---3-----6----6----6-------------------------------------------------------------|
G|---3---------------6-------------------------------------------------------------|
D|---------7----7----6-------------------------------------------------------------|
A|---------5----5------------------------------------------------------------------|
E|---3---------------6-------------------------------------------------------------|

************************************

| /   slide up
| \   slide down
| h   hammer-on
| p   pull-off
| ~   vibrato
| +   harmonic
| x   Mute note
| b   Bend
| pb  Pre-bend
| br  Bend release
| pbr Pre-bend release
| brb Bend release bend

************************************
Добавлено: 03.11.2015
Вам также может быть интересно:
Другие материалы по этой песне:
  • Аккорды и текст

Страница создана 03.11.2015
http://primanota.ru/esperanza-spalding/black-gold-chords.htm
Привет, Гость.
Предлагаем пройти революционный курс по гитаре.
Подарок от PrimaNota.Ru, забирай!