PrimaNota.ru - самый крупный в мире бесплатный архив песенных текстов, аккордов, табулатур и нот


Especimen - Señor Lucifer - таба, видео

Регистрация Запомнить меня
Войти через:  Facebook Google Twitter Vk Yandex Mail.ru

Especimen - Señor Lucifer - таба, видео

Печатать
Просмотров: 72
intro

e-------------------------
B----3---3----------------
G--4---4---4--------------  X4
D------------4-4-5-5-5----
A-------------------------
E-------------------------

e------2---5--3--2-3-2---
B----3----------------
G--4-------------------
D----------------------
A----------------------
E----------------------


e-------2--5--3--2-3-----
B----3--3------------3---
G--4---------------------
D------------------------
A------------------------
E------------------------

e-------2--3--2--0-------
B----3--3----------3-----  x2
G--4---------------------
D------------------------
A------------------------
E------------------------

e----------------------------------------------------
B--3--2-----3--2-------------------------------------
G--------4---------4-2------------------------4------
D-----------------------5-4-2-----4-2---------4------
A------------------------------5-------5-4-2--2------
E----------------------------------------------------


muertos por la misma sobredosis
ahora juntos nos podremos ir
al infiernooooooooo

    B     D      F#   G
e--------------------------
B--------------------------
G--------------------------
D---2-2---7-7--------------X4
A---4-4---5-5--4-4-4--5-5--
E--------------2-2-2--3-3--

      A
D--2-2-2-2-2-2- SEÑOR LUCIFEEEERRR
A--0-0-0-0-0-0-

e--------------------------
B--------------------------
G--------------------------
D---2-2---7-7--------------
A---4-4---5-5--4-4-4--5-5--
E--------------2-2-2--3-3--

e-------------------------
B----3---3----------------
G--4---4---4--------------  X2
D------------4-4-5-5-5----
A-------------------------
E-------------------------

e--------------------------
B--------------------------
G--------------------------
D---2-2---7-7--------------X4
A---4-4---5-5--4-4-4--5-5--
E--------------2-2-2--3-3--

D--2-2-2-2-2-2- SEÑOR LUCIFEEEERRR
A--0-0-0-0-0-0-

SOLO:
e-------------------------
B----3---3----------------
G--4---4---4--------------  X4
D------------4-4-5(H)-5-5-
A-------------------------
E-------------------------

e--------------------------
B--------------------------
G--------------------------
D---2-2---7-7--------------X4
A---4-4---5-5--4-4-4--5-5--
E--------------2-2-2--3-3--


D--2-2-2-2-2-2- SEÑOR LUCIFEEEERRR
A--0-0-0-0-0-0-

e--------------------------
B--------------------------
G--------------------------
D---2-2---7-7--------------
A---4-4---5-5--4-4-4--5-5--
E--------------2-2-2--3-3--

REPETIR INTRO

e-------------------------
B----3---3----------------
G--4---4---4--------------  X4
D------------4-4-5-5-5----
A-------------------------
E-------------------------

e------2---5--3--2-3-2---
B----3----------------
G--4-------------------
D----------------------
A----------------------
E----------------------


e-------2--5--3--2-3-----
B----3--3------------3---
G--4---------------------
D------------------------
A------------------------
E------------------------

e-------2--3--2--0-------
B----3--3----------3-----  x2
G--4---------------------
D------------------------
A------------------------
E------------------------

e----------------------------------------------------
B--3--2-----3--2-------------------------------------
G--------4---------4-2------------------------4------
D-----------------------5-4-2-----4-2---------4------
A------------------------------5-------5-4-2--2------
E----------------------------------------------------

FINAL:
     Bm
e----------2-----------------------14--
B--------3----------------------15-----
G------4---------------------16--------
D----4--------------------16-----------
A--2-------------------14--------------
E--------------------------------------

nota:
EN LAS PARTES DE LOS DESHILADOS LA 2 GUITARRA ACOMPAÑA CON ESTO

e---------------------
B---------------------
G---------------------
D--4-7-4--7-4---------
A--2-5-2--5-2--444-555
E--------------222-333

UN ROLONONON
DEDICADA A MIS COMPAÑEROS DE MI PRIMER BANDA
GRILLO, ALDO Y MARIO
Добавлено: 20.07.2015
Другие материалы по этой песне:
  • Аккорды и текст

Страница создана 20.07.2015
http://primanota.ru/especimen/senor-lucifer-chords.htm
Привет, Гость.
Предлагаем пройти революционный курс по гитаре.
Подарок от PrimaNota.Ru, забирай!