PrimaNota.ru - самый крупный в мире бесплатный архив песенных текстов, аккордов, табулатур и нот


Especimen - Secretos - аккорды и текст, таба, видео

Регистрация Запомнить меня
Войти через:  Facebook Google Twitter Vk Yandex Mail.ru

Especimen - Secretos - аккорды и текст, таба, видео

Печатать
Просмотров: 109
Secretos
Especimen
A QUI LES VA ESTA TRANSCRIPCION


E-------------------------------|
a--0----------------------------|
d---2----------2----------------|
g----2--2/3--2------------------|
b-------------------------------|
e-------------------------------|   FIG 1 
SE UTILIZA CUNADO SE INDIQUE

E-3-----------------------------|
a--3--------3-------------------|
d---3--3/4----------------------|
g-------------------------------|
b-------------------------------|
E-------------------------------| FIG 2
INTRO 2 VECES FIG.1 Y 2


Fig.1            fig.2
QUE MISTERIO HAY AL REDEDOR DE LA TIERRA

fig.1       fig.2
CUANTOS SECRETOS NO HAY
fig.1       fig.2
PLASMADOS EN LAS PIEDRAS
fig.1         fig.2
EN LA OSCURIDAD SE OYEN LAMENTOS
fig.1      fig.2
DONDE NO HAY VIDA 
fig.1    fig.2
SOLO SUFRIMIENTOS
C#,A,B,E,D,C#  TODOS LOS ACORDES SON QUINTAS

C#       A,B    C#          A,B
EN LA OSCURIDAD SE OYEN LAMENTOS

C#               A,B
DONDE NO HAY VIDAS SOLO SUFRIMIENTO
C# A,B,E,D,C#
HOHOOOOO...
C#         A,B    C#            A,B
QUE HABRA MAS AYA DE ESTE UNIVERSO
C#               A,B
NO SOMOS LOS UNICOS
C#                 A,B
QUE RESPIRAN EL VIENTO
C#,A,B,E,D,C#
HOHOOOOO.
C#           A,B   C#              A,B
LLEGARA EL FINAL EN CUALQUIER MOMENTO
C#        A,B  C#                  A,B
NOS JUSGARAN ALOS VIVIOS Y A LOS MUERTOS
C#                         A,B
SECRETOS QUE ESCONDEN LA RAZON
C#                 A,B
QUE ESCONDEN LA RAZON
C#,A,E,D,C#
HOHOOOOO.

ESTA ES LA CANCION.
Добавлено: 18.06.2015
Другие материалы по этой песне:
  • Аккорды и текст

Страница создана 18.06.2015
http://primanota.ru/especimen/secretos-chords.htm
Привет, Гость.
Предлагаем пройти революционный курс по гитаре.
Подарок от PrimaNota.Ru, забирай!