PrimaNota.ru - самый крупный в мире бесплатный архив песенных текстов, аккордов, табулатур и нот


Especimen - Pobres Catolicos - бас-таба, видео

Регистрация Запомнить меня
Войти через:  Facebook Google Twitter Vk Yandex Mail.ru

Especimen - Pobres Catolicos - бас-таба, видео

Печатать
Просмотров: 112
intro

-----------------------------
-----------------------------
---7642444467----67------7642
444----------5555--444444----

-------------------------
-------------------------
44444467----67------76424
--------5555--444444----- (x4)

aki empieza lo bueno

--------------------
--------------------
44444-----77777-----
-----55555-----77777 (x2)

aki empieza la letra

----------------------------------------
----------------------------------------
4444444444----------7777777777----------
----------5555555555----------7777777777 (x2)

---------------------------------------------
---------------------------------------------
---------------------------------------------
555555555577777777775555555555777777777755779

--------------------
--------------------
44444-----77777-----
-----55555-----77777 (x2)

----------------------------------------
----------------------------------------
4444444444----------7777777777----------
----------5555555555----------7777777777 (x2)

---------------------------------------------
---------------------------------------------
---------------------------------------------
555555555577777777775555555555777777777755779

-----------------------------
-----------------------------
---7642444467----67------7642
444----------5555--444444----

-------------------------
-------------------------
44444467----67------76424
--------5555--444444----- (x8)

esta es la letra

ke tristesa de katolikos
olvidarte krucifikado
un kristo ke esta muerto
kon los klavos oxidados

no kieres ir al infierno
tu kieres ir al cielo
pero no, vas a poder!!

la religion esta muerta
nada nos puede salvar
espera la hora de tu muerte
esa es la realidad

no kieres ir al infierno
tu kieres ir al cielo
pero no vas a poder!!!

bueno punkis, esa es toda la rola, si piensan ke estoy
mal mandenme un korreo.
saludos a los PAE, a los botas rotas y a los MAR de tepic,
saludos a los uno menos de guadalajara, al natxo, gigio's,
gato, basuras, txino, raul, jonatan, chapo, kaballo y un
abrazote a esveidy, liz, nubia y johana de tepic! tambien
al edgar, bombay, jonas, fer, dany, golo, ramon, juan, al wero
al walter mi prima nayi, lizet y a toda la raza de BC!
Добавлено: 03.05.2015
Другие материалы по этой песне:
  • Аккорды и текст

Страница создана 03.05.2015
http://primanota.ru/especimen/pobres-catolicos-chords.htm
Привет, Гость.
Предлагаем пройти революционный курс по гитаре.
Подарок от PrimaNota.Ru, забирай!