PrimaNota.ru - самый крупный в мире бесплатный архив песенных текстов, аккордов, табулатур и нот


Especimen - Mística - таба, видео

Регистрация Запомнить меня
Войти через:  Facebook Google Twitter Vk Yandex Mail.ru

Especimen - Mística - таба, видео

Печатать
Просмотров: 101
Esta rola es para mi la mejor de especimen, ahi va para mi
banda de rock "BRUMA" de tehuantepec oaxaca, saludos para
la comunidad anarco punk. y ya k la habian pedido tanto pues
aki se las dejo...

El intro es?
 G#5     E5             F#5          B5 A#5 G#5
e------------------------------------------------------
B------------------------------------------------------
G------------------------------------------------------
D-13-----14--13h14p13--9-11---8-9-11-13--16--9--11-13-
A------------------------------------------------------
E------------------------------------------------------

  E5             F#5          B5  A#5 G#5
e-----------------------------------------------------
B-----------------------------------------------------
G-----------------------------------------------------
D-14--13h14p13--9-11---8-9-11-13---11--13-------------
A-----------------------------------------------------
E-----------------------------------------------------

  F#5
e----------------------------------------------- /
B----------------------------------------------- /
G-----------------------------------------------  esto va
D-11-11-11-9-11-11-11-9-11-11-11-9-11-11-11----- / muy rapido
A-----------------------------------------------
E-----------------------------------------------

  E5
e----------------------------------------------- /
B----------------------------------------------- /
G-----------------------------------------------  esto va
D-9-9-9-7-9-9-9-7-9-9-9-7-9-9-9----------------- / muy rapido
A-----------------------------------------------
E-----------------------------------------------

  F#5
e----------------------------------------------- /
B----------------------------------------------- /
G-----------------------------------------------  esto va
D-11-11-11-9-11-11-11-9-11-11-11-9-11-11-11----- / muy rapido
A-----------------------------------------------
E-----------------------------------------------


LETRA"

G#5        E5           F#5           B5    A#5    G#5
Ella es misterio, es un crimen, es la bella tempestad
E5           F#5      B5       A#5  G#5
Mar de las tinieblas, luz y obscuricdad
F#5          E5       F#5
Ella es un enigma nadamas


G#5         E5           F#5         B5     A#5   G#5
Ella es el cielo, es un averno es mentira y es verdad
E5         F#5         B5  A#5   G#5
Ella nunca muere ni te puede olvidar
F#5        E5          F#5
Ella es la misma eternidad


G#5        E5      F#5         B5    A#5      G#5
Vendrá por ti y te llevara tan lejos hasta el fin
      F#5         E5        F#5
Donde solo ella regresa


G#5        E5      F#5         B5    A#5      G#5
Vendrá por mí y me llevara tan lejos hasta el fin
      F#5         E5        F#5
Donde solo ella regresa


(vuelve como el el intro)

 G#5     E5             F#5          B5 A#5 G#5
e------------------------------------------------------
B------------------------------------------------------
G------------------------------------------------------
D-13-----14--13h14p13--9-11---8-9-11-13--16--9--11-13-
A------------------------------------------------------
E------------------------------------------------------

  E5             F#5          B5  A#5 G#5
e-----------------------------------------------------
B-----------------------------------------------------
G-----------------------------------------------------
D-14--13h14p13--9-11---8-9-11-13---11--13-------------
A-----------------------------------------------------
E-----------------------------------------------------

  F#5
e----------------------------------------------- /
B----------------------------------------------- /
G-----------------------------------------------  esto va
D-11-11-11-9-11-11-11-9-11-11-11-9-11-11-11----- / muy rapido
A-----------------------------------------------
E-----------------------------------------------

  E5
e----------------------------------------------- /
B----------------------------------------------- /
G-----------------------------------------------  esto va
D-9-9-9-7-9-9-9-7-9-9-9-7-9-9-9----------------- / muy rapido
A-----------------------------------------------
E-----------------------------------------------

  F#5
e----------------------------------------------- /
B----------------------------------------------- /
G-----------------------------------------------  esto va
D-11-11-11-9-11-11-11-9-11-11-11-9-11-11-11----- / muy rapido
A-----------------------------------------------
E-----------------------------------------------


G#5         E5          F#5            B5    A#5  G#5
Ella si te atrapa no te suelta y no te deja  respirar
E5        F#5          B5    A#5  G#5
Ella te secuestra para nunca regresar
F#5        E5            F#5
ella es un viaje al mas alla


G#5        E5      F#5         B5    A#5      G#5
Vendrá por ti y te llevara tan lejos hasta el fin
      F#5         E5        F#5
Donde solo ella regresa


G#5        E5      F#5         B5    A#5      G#5
Vendrá por mí y me llevara tan lejos hasta el fin
      F#5         E5        F#5
Donde solo ella regresa


G#5          E5           F#5          B5     A#5  G#5
Ella se a perdido en crucifijos de amargura y ansiedad
E5         F#5       B5      A#5 G#5
Ella te asesina y te deja un funeral
E5         F#5
Ella es la mistica?
       G#               E5
muueeerte
      F#5  B5  A#5 G#5
Es la mistica  muerte
      E5   F#5    G#m,-
Es la mistica muerte.
E,-F#,-B,-A#,-G#m,-E,-F#,-B,-A#,-G#,-F#,-E,-F#,---G#
          (este final va con arpegio)

Y weno esto ha sido todo,  todo esta bien
asi me la paso benny rotten
Y pues chido banda, practiquen buenos
guitarristas seguro que sale.
Alli luego les paso los adornitos que tiene la rola.
Cualkier duda ahí esta mi correo.
Добавлено: 20.07.2015
Другие материалы по этой песне:
  • Аккорды и текст

Страница создана 20.07.2015
http://primanota.ru/especimen/mistica-chords.htm
Привет, Гость.
Предлагаем пройти революционный курс по гитаре.
Подарок от PrimaNota.Ru, забирай!