PrimaNota.ru - самый крупный в мире бесплатный архив песенных текстов, аккордов, табулатур и нот


Especimen - Misa Para Muertos - таба, видео

Регистрация Запомнить меня
Войти через:  Facebook Google Twitter Vk Yandex Mail.ru

Especimen - Misa Para Muertos - таба, видео

Печатать
Просмотров: 123
  E|----0--|-----0--|-----0--|-----0--|-----0--|-----0---|
  B|---1-1-|----1-1-|----1-1-|----1-1-|----1-1-|----1-1--|
  G|--2---2|---2---2|---2---2|---2---2|---2---2|---2---2-|
  D|-2-----|2-3-----|3-4-----|4-3-----|3-2-----|2-0-----0|
  A|-------|--------|--------|--------|--------|---------|
  E|-------|--------|--------|--------|--------|---------|
    
  E|-------|-------|-----------0-|
  B|-------|-------|---------1---|
  G|-----0-|-----0-|-------2-----|
  D|----0--|----0--|-----2-------|
  A|-0-3---|-3-2---|-2-0---------|
  E|-------|-------|-------------|

  HABLADO : HERMANOS...

  E|---1-0-|-----1-0-|-----1-0-|-----1-0-|-----1-0-|
  B|--3---3|----3---3|----3---3|----3---3|----3---3| 
  G|-2-----|-2-3-----|-3-4-----|-4-3-----|-3-2-----| X 2   
  D|-------|---------|---------|---------|---------|  
  A|-------|---------|---------|---------|---------| 
  E|-------|---------|---------|---------|---------|  

  MISA PARA MUERTOS...

  E|---|---|---|---|----|---|---|
  B|---|---|---|---|----|---|---|
  G|---|---|---|---|----|---|---|
  D|---|---|---|---|----|---|---|
  A|-7-|-4-|-9-|-6-|-11-|-7-|-6-|
  E|-5-|-2-|-7-|-4-|-9--|-5-|-4-|

  VERSOS :

  E|---------|----------|---------|---------|---------------|
  B|---------|----------|---------|---------|---------------|
  G|---------|----------|---------|---------|---------------|
  D|---------|----------|---------|---------|---------------|
  A|-7777----|---4444---|--9999---|--6666---|--11-11-11-11--|
  E|-5555----|---2222---|--7777---|--4444---|---9--9--9--9--|
  este es el | sermon de|todos los| dias pe-| queños hombre-|

  E|---------|--------------|
  B|---------|--------------|
  G|---------|--------------|
  D|---------|--------------|
  A|--7777---|----66666-----|
  E|--5555---|----44444-----|
   sillos de |mente podrida |


  COROS :

  E|---------|---------|
  B|---------|---------|
  G|---------|---------|
  D|---------|---------| x 3
  A|--4444---|--5555---|
  E|--2222---|--3333---|
   misa para | muertos |
  

                                                L.A.P.Z.
Добавлено: 03.05.2015
Другие материалы по этой песне:

Страница создана 06.07.2012
http://primanota.ru/especimen/misa-para-muertos-chords.htm
Привет, Гость.
Предлагаем пройти революционный курс по гитаре.
Подарок от PrimaNota.Ru, забирай!