PrimaNota.ru - самый крупный в мире бесплатный архив песенных текстов, аккордов, табулатур и нот


Especimen - Me Siento Culpable - таба, видео

Регистрация Запомнить меня
Войти через:  Facebook Google Twitter Vk Yandex Mail.ru

Especimen - Me Siento Culpable - таба, видео

Печатать
Просмотров: 85
							x2
E |-------------------------------------------------------|
B |-------------------------------------------------------|
G |-------------------------------------------------------|
D |--7--7--7--7---3--3--3--3---10-10-10-10---5--5--5--5---|
A |--7--7--7--7---3--3--3--3---10-10-10-10---5--5--5--5---|
E |--5--5--5--5---1--1--1--1----8--8--8--8---3--3--3--3---|

Riff1
E |-------------------------------------------------------|
B |-------------------------------------------------------|
G |-------------------------------------------------------|
D |--7--7--7--7---3--3--3--3---10-10-10-10---5--5--5--5---|
A |--7--7--7--7---3--3--3--3---10-10-10-10---5--5--5--5---|
E |--5--5--5--5---1--1--1--1----8--8--8--8---3--3--3--3---|
   pm..................................................
 a veces me pre____g u n t o que pasa______________ r a

E |----------------------------|
B |----------------------------|
G |----------------------------|
D |--5-------------------------|
A |--5-------------------------|
E |--3-----x/------------------|


Riff2
E |-------------------------------------------------------|
B |-------------------------------------------------------|
G |-------------------------------------------------------|
D |--7--7-7--7---5--7-----10--10-10--10---5--5-5--5-------|
A |--7--7-7--7---5--7-----10--10-10--10---5--5-5--5-------|
E |--5--5-5--5---3--5------8---8--8---8---3--3-3--3-------|


E |-------------------------------------------------------|
B |-------------------------------------------------------|
G |-------------------------------------------------------|
D |--7--7-7--7---5--7-----10--10-10--10-----5----5--5-----|
A |--7--7-7--7---5--7-----10--10-10--10-----5----5--5-----|
E |--5--5-5--5---3--5------8---8--8---8-----3----3--3-----|

Solo
E |-----------------------------------------------|
B |-----------------------------------------------|
G |-----------------------------10b---------12b---|
D |--7--7-7-7--7---5--7---8/9---------8/9---------|
A |-----------------------------------------------|
E |-----------------------------------------------|

E |---------------------------------------------|
B |---------------------------------------------|
G |---------------------------------------------|
D |--7--7-7-7--7---5--7---8/9---9b--9b-9b--9b---|
A |---------------------------------------------|
E |---------------------------------------------|

E |-----------------------------------------------|
B |-----------------------------------------------|
G |-----------------------------10b---------12b---|
D |--7--7-7-7--7---5--7---8/9---------8/9---------|
A |-----------------------------------------------|
E |-----------------------------------------------|

E |-----------------------------------------------|
B |-----------------------------------------------|
G |-----------------------------------------------|
D |--7--7-7-7--7---5--7---8/9---12b--12b-12b--12b-|
A |-----------------------------------------------|
E |-----------------------------------------------|

Cualquier corrección que Hubiese favor de contactarme a radamantominos@
Gracias.
Добавлено: 20.07.2015
Другие материалы по этой песне:
  • Аккорды и текст

Страница создана 20.07.2015
http://primanota.ru/especimen/me-siento-culpable-chords.htm
Привет, Гость.
Предлагаем пройти революционный курс по гитаре.
Подарок от PrimaNota.Ru, забирай!