PrimaNota.ru - самый крупный в мире бесплатный архив песенных текстов, аккордов, табулатур и нот


Especimen - Los Muertos Resucitan - таба, видео

Регистрация Запомнить меня
Войти через:  Facebook Google Twitter Vk Yandex Mail.ru

Especimen - Los Muertos Resucitan - таба, видео

Печатать
Просмотров: 91
 Es instrumental.

el intro es asi:

LA "X" INDICA LAS CUERDAS QUE NO SE TOCA (OJO ES ARPEGIO)
 
 
       Am         Dm        B
 E------------x|-------x|-------x----|----
 A------------x|---3----|-2----------|-----
 D-----2-------|----2---|------------|-------
 G-----2-------|-----0--|------------|-------
 B-----0-------|-------x|--------x---|------
 e------------x|-------x|--------x---|--------

 despues se combina con:
 
 E---------------------------------------------------------
 A---------3--3-2--2--3--2----------------3---3--2--2--3--2
 D-2-2--2-------------------2--2--2--2--2------------------ 
 G---------------------------------------------------------
 B---------------------------------------------------------
 e--------------------------------------------------------- 


DESPUES LOS ACORDES DE LA ROLITA SON :
        A        B       D
   E---5------|--7----|---8----|----------------
   A---7------|--9----|---10---|----------------
   D----------|-------|--------|----------------
   G----------|-------|--------|----------------
   B----------|-------|--------|----------------
   e----------|-------|--------|----------------

  Y EL ORDEN DE LOS ACORDES ES ASI : [ A  - D -B-D-B  -A ]
 ES TODO    
 
CUALQUIER DUDA AQUI ESTOY Y PORFAVAR SI LA VEN MANDENME UN CORREO 
Y QUE CHIDO QUE LES LATA ESTE GRUPO 
PUNK NO MUERE !!!!!!!!!!!!!!
Добавлено: 03.05.2015
Другие материалы по этой песне:

Страница создана 16.05.2012
http://primanota.ru/especimen/los-muertos-resucitan-chords.htm
Привет, Гость.
Предлагаем пройти революционный курс по гитаре.
Подарок от PrimaNota.Ru, забирай!