PrimaNota.ru - самый крупный в мире бесплатный архив песенных текстов, аккордов, табулатур и нот


Especimen - I'm An Antique - таба, видео

Регистрация Запомнить меня
Войти через:  Facebook Google Twitter Vk Yandex Mail.ru

Especimen - I'm An Antique - таба, видео

Печатать
Просмотров: 82
LA BANDA PERDONEN EL ACOMODAMIENTO PERO ESQUE ESTA
BIEN PERRA PARA PONERLA PASO POR PASO ESPERO COMPRENDAN
MIS GARABATOS!!! CHIDO!!! -FERCH-!!! HAHAHAH

INTRO!!!......
E|-------------------------
B|-------------------------
G|-------------------------
D|-5-7------9----5-7----4--
A|-3-5--7-9-7--0-3-5--0-2--
E|------5-7----------------

(SE REPITE POR 6 VRSES)
E|-----------------------------------------------------------------
B|-----------------------------------------------------------------
G|-----------------------------------------------------------------
D|-9-999-9-999-9-9-5-555-5-555-5-5---------------------------------
A|-7-777-7-777-7-7-3-333-3-333-3-3-7-777-7-777-7-7-9-999-9-999-9-9-
E|---------------------------------5-555-5-555-5-5-7-777-7-777-7-7-

E|-----------------------------------------------------------
B|-----------------------------------------------------------
G|-----------------------------------------------------------
D|-----------9--9-9-9-9-5--5-5-5-5---------------------------
A|-7-9-10-12-7--7-7-7-7-3--3-3-3-3-7--7-7-7-7-7-7-9--9-9-9-9-
E|-5-7-8--10-----------------------5--5-5-5-5-5-5-7--7-7-7-7-

(SE REPITE POR 2 VRSES)
E|-----------------------------------------------------------------
B|-----------------------------------------------------------------
G|-----------------------------------------------------------------
D|-9-999-9-999-9-9-5-555-5-555-5-5---------------------------------
A|-7-777-7-777-7-7-3-333-3-333-3-3-7-777-7-777-7-7-9-999-9-999-9-9-
E|---------------------------------5-555-5-555-5-5-7-777-7-777-7-7-

E|-----------------------------------------------------------
B|-----------------------------------------------------------
G|-----------------------------------------------------------
D|-----------9--9-9-9-9-5--5-5-5-5---------------------------
A|-7-9-10-12-7--7-7-7-7-3--3-3-3-3-7--7-7-7-7-7-7-9--9-9-9-9-
E|-5-7-8--10-----------------------5--5-5-5-5-5-5-7--7-7-7-7-

E|-----------------------------------------------------
B|-----------------------------------------------------
G|-----------------------------------------------------
D|----------9----5--5-5--5-5----------9----5--5-5--5-5-
A|-9--9-7-9-7--0-3--3-3--3-3-9--9-7-9-7--0-3--3-3--3-3-
E|-7--7-5-7------------------7--7-5-7------------------

E|-----------------------
B|-----------------------
G|-----------------------
D|-----------------------
A|-9--9-9-7-9--9-999-7-9-
E|-7--7-7-5-7--7-777-5-7-
Добавлено: 20.07.2015
Другие материалы по этой песне:
  • Аккорды и текст

Страница создана 20.07.2015
http://primanota.ru/especimen/im-an-antique-chords.htm
Привет, Гость.
Предлагаем пройти революционный курс по гитаре.
Подарок от PrimaNota.Ru, забирай!