PrimaNota.ru - самый крупный в мире бесплатный архив песенных текстов, аккордов, табулатур и нот


Especimen - Genética - таба, видео

Регистрация Запомнить меня
Войти через:  Facebook Google Twitter Vk Yandex Mail.ru

Especimen - Genética - таба, видео

Печатать
Просмотров: 120
E |---------------------------------------------------|
B |---------------------------------------------------|
G |---------------------------------------------------|
D |--4----2--4--5----2--5--4----2--4--5------2--5--4--|
A |--4----2--4--5----2--5--4----2--4--5------2--5--4--|
E |--2----0--2--3----0--3--2----0--2--3--x/--0--3--2--|

						x2
E |-------------------------------------------------|
B |-------------------------------------------------|
G |-------------------------------------------------|
D |--4--4---4-4-4---4--4--4/5--5--5---5-5-5---5--5--|
A |--4--4---4-4-4---4--4--4/5--5--5---5-5-5---5--5--|
E |--2--2---2-2-2---2--2--2/3--3--3---3-3-3---3--3--|

					
E |--2--2---2-2-2---2--2--2/3--3--3---3-3-3---3--3--|
B |--2--2---2-2-2---2--2--2/3--3--3---3-3-3---3--3--|
G |--2--2---2-2-2---2--2--2/3--3--3---3-3-3---3--3--|
D |-------------------------------------------------|
A |-------------------------------------------------|
E |-------------------------------------------------|
(entra en la tercera ves) crearemos varios monstruos...........

Riff1
E |--------------------------------------------------------------------|
B |--------------------------------------------------------------------|
G |--------------------------------------------------------------------|
D |--9--9---9-9-9---12--12---12-12-12---7-7-7---5----5-5-5-5-5-5-5-5---|
A |--9--9---9-9-9---12--12---12-12-12---7-7-7---5----5-5-5-5-5-5-5-5---|
E |--7--7---7-7-7---10--10---10-10-10---5-5-5---3----3-3-3-3-3-3-3-3---|

		x3		Hasta aqui
E |---------------------|----------------|
B |---------------------|----------------|
G |---------------------|----------------|
D |--4/5\4--------------|--4/5\4--4------|
A |--4/5\4--------------|--4/5\4--4------|
E |--2/3\2--x-x-x---x-x-|--2/3\2--2--x/--|


Riff2							
E |---------------------------------------------------------|
B |---------------------------------------------------------|
G |---------------------------------------------------------|
D |--9--9-9-9--9---9--9-9-9--9---5--5-5-5--5---5--5-5-5--5--|
A |--9--9-9-9--9---9--9-9-9--9---5--5-5-5--5---5--5-5-5--5--|
E |--7--7-7-7--7---7--7-7-7--7---3--3-3-3--3---3--3-3-3--3--|


E |--------------------------------------------------------------------|
B |--------------------------------------------------------------------|
G |--------------------------------------------------------------------|
D |--12--12-12-12--12---12--12-12-12--12----7--------------------------|
A |--12--12-12-12--12---12--12-12-12--12----7--------------------------|
E |--10--10-10-10--10---10--10-10-10--10----5--------------------------|
						Inventaremos
Riff3
E |---------------------------------------------------------|
B |---------------------------------------------------------|
G |---------------------------------------------------------|
D |--9--9-9-9--9---9--9-9-9--9---5--5-5-5--5---5--5-5-5--5--|
A |--9--9-9-9--9---9--9-9-9--9---5--5-5-5--5---5--5-5-5--5--|
E |--7--7-7-7--7---7--7-7-7--7---3--3-3-3--3---3--3-3-3--3--|


E |--------------------------------------------------------------------|
B |--------------------------------------------------------------------|
G |--------------------------------------------------------------------|
D |--12--12-12-12--12---12--12-12-12--12----7--7-7-7--7---7--7-7-7--7--|
A |--12--12-12-12--12---12--12-12-12--12----7--7-7-7--7---7--7-7-7--7--|
E |--10--10-10-10--10---10--10-10-10--10----5--5-5-5--5---5--5-5-5--5--|


E |-------------------------|
B |-------------------------|
G |-------------------------|
D |--5--5-5-5---4---5---9---|
A |--5--5-5-5---4---5---9---|
E |--3--3-3-3---2---3---7---|
     Ge________ne___ti__ca

se repite Riff1, Riff2 y Riff3

E |-------------------------------------------------------|
B |-------------------------------------------------------|
G |-------------------------------------------------------|
D |--5--5-5-5---4---5---9---9-9--9-9--9-9-----9----8--9---|
A |--5--5-5-5---4---5---9---9-9--9-9--9-9-----9----8--9---|
E |--3--3-3-3---2---3---7---7-7--7-7--7-7-----7----6--7---|
     Ge________ne__ti___ca................

Cualquier corrección que Hubiese favor de contactarme a radamantominos@
Gracias.
Добавлено: 07.06.2015
Другие материалы по этой песне:
  • Аккорды и текст

Страница создана 07.06.2015
http://primanota.ru/especimen/genetica-chords.htm
Привет, Гость.
Предлагаем пройти революционный курс по гитаре.
Подарок от PrimaNota.Ru, забирай!