PrimaNota.ru - самый крупный в мире бесплатный архив песенных текстов, аккордов, табулатур и нот


Especimen - En Mi Memoria - таба, видео

Регистрация Запомнить меня
Войти через:  Facebook Google Twitter Vk Yandex Mail.ru

Especimen - En Mi Memoria - таба, видео

Печатать
Просмотров: 112
INTRO:
                       (2 veces)
                       B5       A#5       G#5     F#5          E5        F#5     E5/F#5
E--------------------|-----------------------------------------------------------------
B--------------------|-----------------------------------------------------------------
G--------------------|-----------------------------------------------------------------
D--------------------|-----------------------------------------------------------------
A---2---2-----4--4---|---9-------8--------6-------4------------2-----------4-------2/4-
B---0---0-----2--2---|---7-------6--------4-------2------------0-----------2-------0/2-
                         Ha.....,ha......,ha.....,hahaha......,ha.........,haha???.

B5      A#5      G#5
A veces yo me pierdo 
  E5               F#5   E5/F#5
en imagen de este tiempo
B5   A#5        G#5
memorias de la vida
    E5        F#5      B5   A#5   G#5   F#5   E5   F#5
en una fotografia.

B5   A#5   G#5
Mi infancia
     E5          F#5  E5/A#5
que daria por volver
       B5   A#5   G#5
a ser niño otra vez
    E5             F#5     E5/F#5
jugar hasta el cansancio.

B5  A#5  G#5
Juventud
     E5           F#5   E5/F#5    
agradesco esos momentos 
      B5    A#5   G#5
importantes para mi
    E5          F#5       B5
recuerdos de una epoca en mi
A#5   G#5    F#5
mi memoria,
   E5          F#5        B5
recuerdos de una epoca en mi 
A#5  G#5  F#5
mi memoria,
   E5          F#5        B5
recuerdos de una epoca en mi
A#5    G#5    F#5   E5   F#5   E5/F#5
mi memoria.


SOLO:

E-------------------------------------------------------------------------------------------
B-------------------------------------------------------12----------------------------------
G-------8---7---9---7----------------------------------------11---9---8-------9---------11--
D---9-------------------9------9------------11---8---9---------------------------9----------
A--------------------------7-------11---9---------------------------------7---------9-------
E-------------------------------------------------------------------------------------------

 B5  A#5  G#5   F#5      E5   F#5       E5/F#5
 Ha??,ha??,ha?..hahaha??,ha??,haha???.
 B5  A#5  G#5   F#5      E5   F#5       E5/F#5                        
 Ha??,ha??,ha?..hahaha??,ha??,haha???.

B5    A#5         G#5
A veces yo me acuerdo 
       E5          F#5    E5/F#5
de los años que pasaron
  B5      A#5               F#5       B5   A#5   G#5   F#5   E5   F#5
historias que tenia en una fotografia.


B5  A#5   G#5
Mi infancia
   E5          F#5    E5/F#5
solo dejame decirte
    B5        A#5    G#5
que jamas te olvidare
       E5          F#5     E5/F#5
sigues dentro de mi ser

B5   A#5   G#5
Juventud
        E5         F#5    E5/F#5
hoy te alejas lentamente
       B5    A#5     G#5
dando paso a mi existir
   E5          F#5       B5
recuerdos de una epoca en mi
 A#5   G#5    F#5
mi memoria,
   E5           F#5       B5
recuerdos de una epoca en mi
 A#5      G#5    F#5
mi memoria,
   E5           F#5       B5
recuerdos de una epoca en mi
 A#5  G#5    F#5   E5/F#5
mi memoria.

B5   A#5  G#5   F#5     E5   F#5       E5/F#5
Ha??,ha??,ha?..hahaha??,ha??,haha???.
B5  A#5  G#5   F#5     E5   F#5       E5/F#5    B5.                     
Ha??,ha??,ha?..hahaha??,ha??,haha???.
Добавлено: 04.07.2015
Другие материалы по этой песне:

Страница создана 04.07.2015
http://primanota.ru/especimen/en-mi-memoria-chords.htm
Привет, Гость.
Предлагаем пройти революционный курс по гитаре.
Подарок от PrimaNota.Ru, забирай!