PrimaNota.ru - самый крупный в мире бесплатный архив песенных текстов, аккордов, табулатур и нот


Especimen - El Transplante - таба, видео

Регистрация Запомнить меня
Войти через:  Facebook Google Twitter Vk Yandex Mail.ru

Especimen - El Transplante - таба, видео

Печатать
Просмотров: 95
 Intro con bajo
-----------------------------------
-----------------------------------
-----------------------------------
-----------------------------------
--------3-5-6-6-6-6--5-3-----------
-3-3-3-3-----------------3-3-3-3---

-----------------------------------
-----------------------------------
-----------------------------------
-----------------------------------
-3-5-6-9-6-------------------------
-----------------------------------


 Guitarra
-----------------------------------
-----------------------------------
-----------------------------------
5-5-5-5--5-7-8-8-8-8--7-5----------
5-5-5-5--3-5-6-6-6-6--5-3-5-5-5-5--
3-3-3-3-------------------3-3-3-3--

-----------------------------------
-----------------------------------
-----------------------------------
-5-7-8-11-8------------------------
-3-5-6--9-6------------------------
-----------------------------------

'Ahora que no hay    nadie aqui...
------------------------------------
------------------------------------
--------------------8-8-8-8-8-8-8-8-
5-5-5-5-5-5-5-5-----8-8-8-8-8-8-8-8-
5-5-5-5-5-5-5-5-----6-6-6-6-6-6-6-6-
3-3-3-3-3-3-3-3---------------------
                                    (Repetir 2 veces)
'Adentro...        Oohhhh...'
------------------------------------
------------------------------------
------------------------------------
3-3-----------------7-7-------------
3-3-----------------7-7-------------
1-1-----------------5-5-------------

'Que esta haciendo mi triste corazon!?'
------------------------------------
------------------------------------
------------------------------------
3-3--------------------7-7--------3-
1-1--------------------5-5--------1-
1-1--------------------5-5--------1-

------------------------------------
------------------------------------
------------------------------------
8-10--------------------------------
6-8---------------------------------
------------------------------------

 SOLO :
------------------------------------
------------------------------------
------------------------------------
5>7-5-5-7-8-8-8>12-12-8-7-5---------
------------------------------------
------------------------------------
Добавлено: 04.07.2015
Другие материалы по этой песне:
  • Аккорды и текст

Страница создана 04.07.2015
http://primanota.ru/especimen/el-transplante-chords.htm
Привет, Гость.
Предлагаем пройти революционный курс по гитаре.
Подарок от PrimaNota.Ru, забирай!