PrimaNota.ru - самый крупный в мире бесплатный архив песенных текстов, аккордов, табулатур и нот


Especimen - Corruptos - таба, видео

Регистрация Запомнить меня
Войти через:  Facebook Google Twitter Vk Yandex Mail.ru

Especimen - Corruptos - таба, видео

Печатать
Просмотров: 95
E-----------------------------------------------------------------------------------------------------
B-----------------------------------------------------------------------------------------------------
G-----------------------------------------------------------------------------------------------------
D---8-------------------------------------------------------------------------------------------------
A-----------5---8---5---------------------------------------------------------------------------------
E-------6--------------6---8---6---6------------------------------------------------------------------
INTRO:
E-----------------------------------------------------------------------------------------------------
B---11-11-11---10---8--------11-11-11---10---8---------11-11-11---10---8---11---10--------------------
G---------------------------10---------------------------10---------------------------------------8---
D-----------------------------------------------------------------------------------------------------
A-----------------------------------------------------------------------------------------------------
E-----------------------------------------------------------------------------------------------------

E-----------------------------------------------------------------------------------------------------
B---11-11-11---10---8---------11-11-11---10---8---------11-11-11---10---8--------10---11---13---------
G---------------------------10----------------------------10---------------------------10-------------
D-----------------------------------------------------------------------------------------------------
A-----------------------------------------------------------------------------------------------------
E-----------------------------------------------------------------------------------------------------

A#5                            G5
Carroña de buitres en el parlamento
        C5                      F5
discuten las alzas de su presupuesto
        A#5                        G5
aumentan el precio de los comestibles
       C5                     F5
sembrando carencia ante los humildes.

      A#5                        G5
Hombre de letras cual es la solucion
        C5                      F5            
para olvidarnos de tanta corrupción. 

    A#5                          G5
Roba el presidente y sus secretarios
       C5                         F5
roban los ministros y los funcionarios 
      A#5
roba el sacerdote y los empresarios 
      C5                       F5
roban los magnates y los diputados.

   A#5        G5
Ladrones, ladrones
        C5                         F5
corruptos ejemplos de la explotacion
     A#5       G5
ladrones, ladrones
       C5                     F5
corruptos ejemplos de nuestra nacion.

E--------------------------------------------------------------------------------10-10-10-10---8---6-6-6-6
B--11-11-11-11---10---8-8-8-8---10---11---13-13-13-13---11---10-------------------------------------------
G---------------------------------------------------------------------------------------------------------
D---------------------------------------------------------------------------------------------------------
A---------------------------------------------------------------------------------------------------------
E---------------------------------------------------------------------------------------------------------

E---8---10---11-11-11-11---10---8---11-10-8---------------------------------------------------------------
B------------------------------------------------------11-10-8--------------------------------------------
G---------------------------------------------------------------------------------------------------------
D---------------------------------------------------------------------------------------------------------
A---------------------------------------------------------------------------------------------------------
E---------------------------------------------------------------------------------------------------------

    A#5                          G5
Ratas de uniforme buscando billetes
        C5                             F5
como el abogado que estafa a sus clientes
       A#5                    G5
dentro de la carcel hay reformatorios
        C5                      F5
condenando reos hacia el purgatorio.

        A#5                       G5
Hombre de leyes cual es tu conclusión 
     C5                              F5
si los mandatarios pagan con traicion.

     A#5                          G5
Roba el gobernante y sus delegados
        C5                     F5
roban los clientes y los licenciados
   A#5                        G5
roba el traficante y el falsificador
     C5                           F5
roban los policias y el procurador.

      A#5        G5
Ladrones, ladrones
     C5                            F5
corruptos ejemplos de la explotacion
      A#5         G5
ladrones, ladrones
   C5                                F5
corruptos ejemplos de nuestra nacion.
Добавлено: 04.07.2015
Другие материалы по этой песне:
  • Аккорды и текст

Страница создана 04.07.2015
http://primanota.ru/especimen/corruptos-chords.htm
Привет, Гость.
Предлагаем пройти революционный курс по гитаре.
Подарок от PrimaNota.Ru, забирай!