PrimaNota.ru - самый крупный в мире бесплатный архив песенных текстов, аккордов, табулатур и нот


Especimen - Corazón Amargo - таба, видео

Регистрация Запомнить меня
Войти через:  Facebook Google Twitter Vk Yandex Mail.ru

Especimen - Corazón Amargo - таба, видео

Печатать
Просмотров: 78
Уроки эстрадного вокала в Санкт-Петербурге
 INTRO
-----------------------------
--------------9-9-9-9-9-9----
--7-7-7-7-7-7-7-7-7-7-7-7----
-0-0-0-0-0-0-0-0-0-0-0-0-----
-----------------------------

FILL 1
-----------------------------
----------------------------- 
-----------------------------
--7-7-7-7-9-5----------------
-0-0-0-0---------------------
-----------------------------


 Riff Principal
-----------------------------
-----------------------------
--2--2-2-2-2-2-5-5-5-5-5----- (Ahogar cuerdas
--2--2-2-2-2-2-3-3-3-3-3----- despues de la 2da vez)
--0--0-0-0-0-0---------------
-----------------------------

 ' Del corazon...  Completamente amargo'
-----------------------------
-----------------------------
----7------------------------
----7-------10---------------
----5--------8---------------
-------------8---------------

-----------------------------
-----------------------------
-5-5-5-5-5-5--4-4-4-4--4-4-4-
-5-5-5-5-5-5--4-4-4-4--4-4-4-
-3-3-3-3-3-3--2-2-2-2--2-2-2-
-----------------------------

-----------------------------
-----------------------------
-3-3-3-3--3-3-3-3---2-5------ Repetir Riff Principal
-3-3-3-3--3-3-3-3---2-3------
-1-1-1-1--1-1-1-1---0--------
-----------------------------

 ' Del corazon...  Completamente amargo'
-----------------------------
-----------------------------
----7------------------------
----7-------10---------------
----5--------8---------------
-------------8---------------

Riff acelerado...
-----------------------------
-----------------------------
-----------------------------
---------5-4---7-7-5-4------- (repetir 2 veces)
-5-7-5-7-3-2-5-5-5-3-2-------
-3-5-3-5-----3---------------

(Repetir Riff Principal Acelerado
, coros e intro)

 Solo:
--------------13-------------
--6>10--10>11>13-10---------- (repetir la 2da parte
-----------------------------      3 veces)
----------------------------- 
-----------------------------
-----------------------------

 Solo Fill
-----------------------------
-10-11-13--------------------
-----------------------------
-----------------------------
-----------------------------
-----------------------------

-----------------------------
--10-10h--6-6h--10-10h--6-6h-
-----------------------------
-----------------------------
-----------------------------
-----------------------------

 (repetir Riff Principal)
Добавлено: 04.07.2015
Другие материалы по этой песне:
  • Аккорды и текст

Страница создана 04.07.2015
http://primanota.ru/especimen/corazon-amargo-chords.htm
Привет, Гость.
Предлагаем пройти революционный курс по гитаре.
Подарок от PrimaNota.Ru, забирай!