PrimaNota.ru - самый крупный в мире бесплатный архив песенных текстов, аккордов, табулатур и нот


Especimen - Chox Es Drogadicto - таба, видео

Регистрация Запомнить меня
Войти через:  Facebook Google Twitter Vk Yandex Mail.ru

Especimen - Chox Es Drogadicto - таба, видео

Печатать
Просмотров: 97
chido la banda!!! del ferch pa ustedes!!! que viva la rebelion!!!!!

Intro??. Bajo y despues la guitarra!!
E|----------------------------------
B|----------------------------------
G|----------------------------------
D|--------------10--------------7---
A|-12-12--12-12-8--10--8-8--8-8-5-7-
E|-10-10--10-10----8---6-6--6-6---5-

E|---------------------------------------
B|---------------------------------------
G|---------------------------------------
D|---------------------------------------
A|-3-3--3-3-3--5-5--5-5-5--8-8--8-8-8--7-
E|-1-1--1-1-1--3-3--3-3-3--6-6--6-6-6--5-

Verso??.. Les contare la historia???.
E|-------------------------------------------------
B|-------------------------------------------------
G|-------------------------------------------------
D|--------------10----------------------7----------
A|-12-12--12-12-8?10--10-10-10-8-8--8-8-5-7--7-7-7-
E|-10-10--10-10----8--8--8--8--6-6--6-6---5--5-5-5-

E|----------------------------------------------
B|----------------------------------------------
G|----------------------------------------------
D|----------------------------------------------
A|-3-3--3-3-3--5-5--5-5-5--8-8--8-8-8--7--7-7-7-
E|-1-1--1-1-1--3-3--3-3-3--6-6--6-6-6--5--5-5-5-

(CORO)???Chox es drogadicto??
E|-------------------------------------------------
B|-------------------------------------------------
G|-------------------------------------------------
D|-7-7--7-7-7--3-3--3-3-3--5-5--5-5-5--10-10--9-9--
A|-5-5--5-5-5--1-1--1-1-1--3-3--3-3-3--8--8---7-7--
E|-------------------------------------------------

SOLO               (Repetir #2 veces)
E|---------------------------------|
B|---------------------------------|
G|-7-7--7----------------10-10-9-9-|
D|-------8-8--8-10-10--10----------|
A|---------------------------------|
E|---------------------------------|

         (Repetir #2 veces)
E|-----------------------------------
B|-----------------------------------
G|-7-7--7-9-9--10-10/12-10h12-10-9---
D|--------------------------------10-
A|-----------------------------------
E|-----------------------------------
Добавлено: 04.07.2015
Другие материалы по этой песне:
  • Аккорды и текст

Страница создана 04.07.2015
http://primanota.ru/especimen/chox-es-drogadicto-chords.htm
Привет, Гость.
Предлагаем пройти революционный курс по гитаре.
Подарок от PrimaNota.Ru, забирай!