PrimaNota.ru - самый крупный в мире бесплатный архив песенных текстов, аккордов, табулатур и нот


Especimen - Canto Al Animal - таба, видео

Регистрация Запомнить меня
Войти через:  Facebook Google Twitter Vk Yandex Mail.ru

Especimen - Canto Al Animal - таба, видео

Печатать
Просмотров: 95
	Riff1
E |------------------------------------|
B |------------------------------------|
G |------------------------7-7--6--4---|
D |--2--2-2-2---5--5-5-5---7-7--6--4---|
A |--2--2-2-2---5--5-5-5---5-5--4--2---|
E |--0--0-0-0---3--3-3-3---5-5--4--2---|

	Riff2
E |-------------------------------------------------|
B |-------------------------------------------------|
G |-------------------------------------------------|
D |--5--5-5-5---7--7-7-7---10--10-10-10---9--9-9-9--|
A |--5--5-5-5---7--7-7-7---10--10-10-10---9--9-9-9--|
E |--3--3-3-3---5--5-5-5----8---8--8--8---7--7-7-7--|

(Riff1)
Este es un canto
un canto al animal
que es encerrado
maltratado 
y humillado

(Riff2)
Gracias te doy
querido animal
por haberte
sacrificado aunque
tu, no lo hayas 
deseado, gracias

(Riff1)
Por ti, yo como
y visto
por ti, yo estoy 
vivo.

(Riff2)
Gracias te doy
querido animal
por haberte
sacrificado aunque
tu, no lo hayas 
deseado, gracias
Добавлено: 04.07.2015
Другие материалы по этой песне:
  • Аккорды и текст

Страница создана 04.07.2015
http://primanota.ru/especimen/canto-al-animal-chords.htm
Привет, Гость.
Предлагаем пройти революционный курс по гитаре.
Подарок от PrimaNota.Ru, забирай!