PrimaNota.ru - самый крупный в мире бесплатный архив песенных текстов, аккордов, табулатур и нот


Eskorbuto - Yolanda - таба, видео

Регистрация Запомнить меня
Войти через:  Facebook Google Twitter Vk Yandex Mail.ru

Eskorbuto - Yolanda - таба, видео

Печатать
Просмотров: 112
yolanda


eskorbuto


TRANSCRIBED BY RUDY GUZMAN


guzman_84@hotmail.com


e:------------------------------------------------------------------|
B:------------------------------------------------------------------|
G:-4-4-4-------6-6-6-6-6-6--9--9--9--9--9--9--9---11-11-11-11-11-11-|
D:-5-5-5--5-5--7-7-7-7-7-7--10-10-10-10-10-10-10--12-12-12-12-12-12-|
A:-5-5-5--5-5--7-7-7-7-7-7--10-10-10-10-10-10-10--12-12-12-12-12-12-|
E:-3-0-3--3-3--5-5-5-5-5-5--8--8--8--8--8--8--8---10-10-10-10-10-10-|

verse
e:-----3--3-3--------5-5-5-----------8--8--8--8---------10-10-10-10-|
B:-----3--3-3--------5-5-5-----------8--8--8--8---------10-10-10-10-|
G:-4-4-4--4-4--6-6-6-6-6-6--9--9--9--9--9--9--9---11-11-11-11-11-11-|
D:-5-5-5--5-5--7-7-7-7-7-7--10-10-10-10-10-10-10--12-12-12-12-12-12-| x 4
A:-5-5-5--5-5--7-7-7-7-7-7--10-10-10-10-10-10-10--12-12-12-12-12-12-|
E:-3-3-3--3-3--5-5-5-5-5-5--8--8--8--8--8--8--8---10-10-10-10-10-10-|


e:---------------------------------------------------|
B:---------------------------------------------------|
G:-4-----------6-6-6--------9--------------11-11-11--|
D:-5-----------7-7-7--------10-------------12-12-12--|
A:-5-----------7-7-7--------10-------------12-12-12--|
E:-3-----------5-5-5--------8--------------10-10-10--|

  jovenes promesas...
e:-----------5-5-5-----------8--8--8--8---------10-10-10-10-|
B:-----------5-5-5-----------8--8--8--8---------10-10-10-10-|
G:-4---6-6-6-6-6-6--9--9--9--9--9--9--9---11-11-11-11-11-11-|
D:-5---7-7-7-7-7-7--10-10-10-10-10-10-10--12-12-12-12-12-12-|
A:-5---7-7-7-7-7-7--10-10-10-10-10-10-10--12-12-12-12-12-12-|
E:-3---5-5-5-5-5-5--8--8--8--8--8--8--8---10-10-10-10-10-10-|

e:-----3--3-3--------5-5-5-----------8--8--8--8---------10-10-10-10-|
B:-----3--3-3--------5-5-5-----------8--8--8--8---------10-10-10-10-|
G:-4-4-4--4-4--6-6-6-6-6-6--9--9--9--9--9--9--9---11-11-11-11-11-11-|
D:-5-5-5--5-5--7-7-7-7-7-7--10-10-10-10-10-10-10--12-12-12-12-12-12-| x 4
A:-5-5-5--5-5--7-7-7-7-7-7--10-10-10-10-10-10-10--12-12-12-12-12-12-|
E:-3-3-3--3-3--5-5-5-5-5-5--8--8--8--8--8--8--8---10-10-10-10-10-10-|

su nombre es yolanda y tiene un panda...
e:-----------5-5-5-----------8--8--8--8---------10-10-10-10-|
B:-----------5-5-5-----------8--8--8--8---------10-10-10-10-|
G:-4---6-6-6-6-6-6--9--9--9--9--9--9--9---11-11-11-11-11-11-|
D:-5---7-7-7-7-7-7--10-10-10-10-10-10-10--12-12-12-12-12-12-|
A:-5---7-7-7-7-7-7--10-10-10-10-10-10-10--12-12-12-12-12-12-|
E:-3---5-5-5-5-5-5--8--8--8--8--8--8--8---10-10-10-10-10-10-|


e:-----3--3-3--------5-5-5-----------8--8--8--8---------10-10-10-10-|
B:-----3--3-3--------5-5-5-----------8--8--8--8---------10-10-10-10-|
G:-4-4-4--4-4--6-6-6-6-6-6--9--9--9--9--9--9--9---11-11-11-11-11-11-|
D:-5-5-5--5-5--7-7-7-7-7-7--10-10-10-10-10-10-10--12-12-12-12-12-12-| x 2
A:-5-5-5--5-5--7-7-7-7-7-7--10-10-10-10-10-10-10--12-12-12-12-12-12-|
E:-3-3-3--3-3--5-5-5-5-5-5--8--8--8--8--8--8--8---10-10-10-10-10-10-|


e:-----------------------------------------------------------------------|
B:-----------------------------------------------------------------------|
G:-----------------------------------------------------------------------|
D:-3-4--5-5-5--5-5--7-7-7-7-7-7--10-10-10-10-10-10-10--12-12-12-12-12-12-|
A:-3-4--5-5-5--5-5--7-7-7-7-7-7--10-10-10-10-10-10-10--12-12-12-12-12-12-|
E:-1-2--3-3-3--3-3--5-5-5-5-5-5--8--8--8--8--8--8--8---10-10-10-10-10-10-|


e:-----3--3-3--------5-5-5-----------8--8--8--8---------10-10-10-10-|
B:-----3--3-3--------5-5-5-----------8--8--8--8---------10-10-10-10-|
G:-4-4-4--4-4--6-6-6-6-6-6--9--9--9--9--9--9--9---11-11-11-11-11-11-|
D:-5-5-5--5-5--7-7-7-7-7-7--10-10-10-10-10-10-10--12-12-12-12-12-12-| x 2
A:-5-5-5--5-5--7-7-7-7-7-7--10-10-10-10-10-10-10--12-12-12-12-12-12-|
E:-3-3-3--3-3--5-5-5-5-5-5--8--8--8--8--8--8--8---10-10-10-10-10-10-|


e:-----------5-5-5-----------8--8--8--8---------10-10-10-10-|
B:-----------5-5-5-----------8--8--8--8---------10-10-10-10-|
G:-4---6-6-6-6-6-6--9--9--9--9--9--9--9---11-11-11-11-11-11-|
D:-5---7-7-7-7-7-7--10-10-10-10-10-10-10--12-12-12-12-12-12-|
A:-5---7-7-7-7-7-7--10-10-10-10-10-10-10--12-12-12-12-12-12-|
E:-3---5-5-5-5-5-5--8--8--8--8--8--8--8---10-10-10-10-10-10-|

e:-----------5-5-5-----------8--8--8--8---------10-10-10-10-|
B:-----------5-5-5-----------8--8--8--8---------10-10-10-10-|
G:-4---6-6-6-6-6-6--9--9--9--9--9--9--9---11-11-11-11-11-11-|
D:-5---7-7-7-7-7-7--10-10-10-10-10-10-10--12-12-12-12-12-12-|
A:-5---7-7-7-7-7-7--10-10-10-10-10-10-10--12-12-12-12-12-12-|
E:-3---5-5-5-5-5-5--8--8--8--8--8--8--8---10-10-10-10-10-10-|

e:-----3--3-3--------5-5-5-----------8--8--8--8---------10-10-10-10-|
B:-----3--3-3--------5-5-5-----------8--8--8--8---------10-10-10-10-|
G:-4-4-4--4-4--6-6-6-6-6-6--9--9--9--9--9--9--9---11-11-11-11-11-11-|
D:-5-5-5--5-5--7-7-7-7-7-7--10-10-10-10-10-10-10--12-12-12-12-12-12-| x 4
A:-5-5-5--5-5--7-7-7-7-7-7--10-10-10-10-10-10-10--12-12-12-12-12-12-|
E:-3-3-3--3-3--5-5-5-5-5-5--8--8--8--8--8--8--8---10-10-10-10-10-10-|


  jovenes promesas...
e:-----------5-5-5-----------8--8--8--8-------|
B:-----------5-5-5-----------8--8--8--8-------|
G:-4---6-6-6-6-6-6--9--9--9--9--9--9--9---11--|
D:-5---7-7-7-7-7-7--10-10-10-10-10-10-10--12--|
A:-5---7-7-7-7-7-7--10-10-10-10-10-10-10--12--|
E:-3---5-5-5-5-5-5--8--8--8--8--8--8--8---10--|

hillo son mex
herson

hermosillo son.

07/04/05

correccion en 27/01/12
Добавлено: 19.04.2012
Другие материалы по этой песне:
  • Аккорды и текст

Страница создана 19.04.2012
http://primanota.ru/eskorbuto/yolanda-chords.htm
Привет, Гость.
Предлагаем пройти революционный курс по гитаре.
Подарок от PrimaNota.Ru, забирай!