PrimaNota.ru - самый крупный в мире бесплатный архив песенных текстов, аккордов, табулатур и нот


Eskimo Joe - New York - аккорды и текст, таба, видео

Регистрация Запомнить меня
Войти через:  Facebook Google Twitter Vk Yandex Mail.ru

Eskimo Joe - New York - аккорды и текст, таба, видео

Печатать
Просмотров: 153
Авторы музыки: Kav Temperley, Joel Quartermain, Stuart MacLeod

New York
Eskimo Joe
Eskimo Joe:  New York

(Intro, Chorus)
   E   C#m  G#m  B/F#
e|-0----4----4----2----------------------------------------------|
B|-0----5----4----4----------------------------------------------|
G|-1----6----4----4----------------------------------------------|
D|-2----6----6----4----------------------------------------------|
A|-2----4----6----2----------------------------------------------|
E|-0---------4----2----------------------------------------------|

 (Verse)                         (and i know...)
   E5  G#5   B5   E5  G#5  D#5      C#m  F#m
e|-----------------------------------4----2----------------------|
B|-----------------------------------5----2----------------------|
G|-4---------4----4---------6--------6----2----------------------|
D|-2----6----4----2----6----8--------6----4----------------------|
A|-2----6----2----2----6----8--------4----4----------------------|
E|-0----4---------0----4------------------2----------------------|

 (Bridge)              (Last Chord)
   D#   E*  G#m   B       EMaj7
e|-6----7----4----2---------x------------------------------------|
B|-8----9----4----4---------4------------------------------------|
G|-8----9----4----4---------x------------------------------------|
D|-8----9----6----4---------2------------------------------------|
A|-6----7----6----2---------2------------------------------------|
E|-----------4--------------0------------------------------------|
---- Intro ----
| E  C#m  G#m  B/F# | x2


--- Verse 1 ---
E5                                G#5
   Hey, hey, I know it wasn't New York
B5
Where I lost my mind
E5                              G#5
   Hey, hey, I know I must have left it
       D#5
It was back home all the time
E5                             G#5
   And where were you while we lay
B5
So drunk that we died?
E5                                 G#5
   Hey, Hey, I know, but who could blame us
      D#5
Under pressure


---- Chorus ---
      C#m
And I know
              F#m
I should have stayed in bed
|      E     C#m              G#m             B/F# | 
|And I know,    I should have stayed in bed        | x2


--- Verse 1 ---
E5                              G#5
   Hey, hey, I know it's just a toothache
B5
I won't even cry.
E5                             G#5
   Hey, hey, the candy store prescriptions
    D#5
All lined up in the aisles
E5                          G#5
   And where were you while we lay
B5
Shipwrecked in denial?
E5                       G#5
   Hey, hey, it's just a pill to help you
D#5
Sleep right through the night


---- Chorus ---
      C#m
And I know
              F#m
I should have stayed in bed
      E     C#m              G#m             B/F#
And I know,    I should have stayed in bed
      E     C#m              G#m             D#
And I know,    I should have stayed in bed


--- Bridge ---
          E*
Because tomorrow's gonna be another party
    G#m                    B
You stay to long until the lights get lonely
      E*
Oh, tomorrow's gonna be another party
G#m
Wait too long 'til we
B                   E     C#m
All stay out of the sun
G#m   B/F#
Sun
E     C#m
Sun
G#m   B/F#
Sun

---- Chorus ---
  E     C#m              G#m             B/F#
I know,    I should have stayed in bed
      E     C#m              G#m             B/F#
And I know,    I should have stayed in bed

---- Outro ----
|E            C#m            G#m           B/F#|
|   I know, I know it wasn't New York, New York| x2

|E   C#m   G#m           B/F#|
|          New York, New York|x2
EMaj7
Добавлено: 08.11.2013
Другие материалы по этой песне:
  • Аккорды и текст

Страница создана 03.06.2012
http://primanota.ru/eskimo-joe/new-york-chords.htm
Привет, Гость.
Предлагаем пройти революционный курс по гитаре.
Подарок от PrimaNota.Ru, забирай!