PrimaNota.ru - самый крупный в мире бесплатный архив песенных текстов, аккордов, табулатур и нот


Eskimo Joe - Morning Light - текст песни, таба, видео

Регистрация Запомнить меня
Войти через:  Facebook Google Twitter Vk Yandex Mail.ru

Eskimo Joe - Morning Light - текст песни, таба, видео

Печатать
Просмотров: 86
-------------------------------------------------------------------------------
			     Morning Light - Eskimo Joe
-------------------------------------------------------------------------------
Tabbed by: Chris
Email: holdenrules_64@hotmail.com

------Tuning-----: Eb tuning, half a step down

Hey guys, really love this song, awesome band! I think this is pretty close, not 100% 
about the bridge, any corrections just leave a comment, cheers... Enjoy =D

Sounds better if you play barre chords for the chorus if you can, if you cant, its not 
important and keep practising, you'll get there =D
God Bless =D

---Intro---
  Dm      Fmaj7      C        G
e|-1--1-----0--0-----0--0-----3--3--------|
B|-3----3---1----1---1----1---0----0------|
G|-2--------2--------0--------0-----------|  x2
D|-0--------3--------2--------0-----------|
A|-0--------0--------3--------2-----------|
E|-x--------x--------x--------3-----------|


---Verse 1---
   Dm      Fmaj7     C        G
e|-1--1-----0--0-----0--0-----3--3--------|
B|-3----3---1----1---1----1---0----0------|
G|-2--------2--------0--------0-----------|
D|-0--------3--------2--------0-----------|
A|-0--------0--------3--------2-----------|
E|-x--------x--------x--------3-----------|

   Dm      Fmaj7     C        C
e|-1--1-----0--0-----0--0-----0--0--------|
B|-3----3---1----1---1----1---1----1------|
G|-2--------2--------0--------0-----------|
D|-0--------3--------2--------2-----------|
A|-0--------0--------3--------3-----------|
E|-x--------x--------x--------x-----------|
  (note) Stay on the C here  ^^^  instead of G

   Dm      Fmaj7     C        G
e|-1--1-----0--0-----0--0-----3--3--------|
B|-3----3---1----1---1----1---0----0------|
G|-2--------2--------0--------0-----------|
D|-0--------3--------2--------0-----------|
A|-0--------0--------3--------2-----------|
E|-x--------x--------x--------3-----------|

    F       C      Dm      C      G
e|-1-1-----0-0-----5-5----3-3---3-3-3---------------------|
B|-1-1-----1-1-----6-6----5-5---0-0-0---------------------|
G|-2-2-----0-0-----7-7----5-5---0-0-0---------------------|
D|-3-3-----2-2-----7-7----5-5---0-0-0---------------------|
A|-3-3-----3-3-----5-5----3-3---2-2-2---------------------|
E|-1-1-----x-x-----5-5----3-3---3-3-3---------------------|
**Fear... Down...  Up...

The American situation
Is on our minds again
And I don't know if I've been here before
We would try to go to sleep
But we're running round in circles
**For fear of falling down and we cant get up


---Chorus---
       Dm                   F
And I wait for the morning light
         C
To burn away the slings and arrows
      G
Flying through the night
          Dm
And I am home
          F
But I am not a man
           C
They will try to take the things
                G
That you can't hold down with your hands
               F   C
So hold them down


---Verse 2---
   Dm      Fmaj7     C        G
e|-1--1-----0--0-----0--0-----3--3--------|
B|-3----3---1----1---1----1---0----0------|
G|-2--------2--------0--------0-----------|
D|-0--------3--------2--------0-----------|
A|-0--------0--------3--------2-----------|
E|-x--------x--------x--------3-----------|

  Dm       Fmaj7     C      |  small riff in verse  |
e|-1--1-----0--0-----0------|-----------------------|
B|-3----3---1----1---1------|-----------------------|
G|-2--------2--------0------|-----------------------|
D|-0--------3--------2------|-----------------------|
A|-0--------0--------3------|---0-2-3--5--3---------|
E|-x--------x--------x------|-----------------------|
  (note) Let C ring out

   Dm      Fmaj7     C        G
e|-1--1-----0--0-----0--0-----3--3--------|
B|-3----3---1----1---1----1---0----0------|
G|-2--------2--------0--------0-----------|
D|-0--------3--------2--------0-----------|
A|-0--------0--------3--------2-----------|
E|-x--------x--------x--------3-----------|

      Dm             C             G
e|----5-5-----------3-3----------3-3-3---------------------|
B|----6-6-----------5-5----------0-0-0---------------------|
G|----7-7-----------5-5----------0-0-0---------------------|
D|----7-7-----------5-5----------0-0-0---------------------|
A|----5-5-----------3-3----------2-2-2---------------------|
E|----5-5-----------3-3----------3-3-3---------------------|
**Always There.. Always There.. Always There..

A war across an ocean
Is like a dream from which you've woken
If you don't like what you see
Then go to sleep
But the smell of smoke is in your hair
And the heavy heart is always there
**It's always there
  It's always there
  It's always there


---Chorus---
       Dm                   F
And I wait for the morning light
         C
To burn away the slings and arrows
      G
Flying through the night
          Dm
And I am home
          F
But I am not a man
           C
They will try to take your crown
                G
If you can't hold it down


---Bridge---
Dm         C             G
In the darkness of the winter time
Dm      C               G
I will try to take you home
Dm      C                   G
In the long grass of the evening time


---Chorus---
       Dm                   F
And I wait for the morning light
         C
To burn away the slings and arrows
      G
Flying through the night

   F      Am     C       Dm
e|-1-    -5-    -8--    -10-    ---|
B|-1-    -5-    -8--    -10-    ---|
G|-2-    -5-    -9--    -11-    ---|
D|-3- x8 -7- x8 -10- x8 -12- x8 ---|  all down-strokes
A|-3-    -7-    -10-    -12-    ---|
E|-1-    -5-    -8--    -10-    ---|
**wait.. Pass.. Try...  Try..

And we must wait
For this to pass us by
And I will try to close my eyes
I will try to close my eyes


---Ending Chorus---
       Dm            F
And I wait for the morning light
         C
To burn away the slings and arrows
      G
Flying through the night
             F
And we must wait
             Am
For this to pass us by
        C
I will try to take you home
             G
If you cant hold it down
            F    C    G
So hold it down
            F
So hold it down
    C      Dm  (let ring out)
Yeah yeah yeah...


| /  slide up
| \  slide down
| h  hammer-on
| p  pull-off
| ~  vibrato
| +  harmonic
| x  Mute note
===============================================================================
Добавлено: 04.08.2013
Другие материалы по этой песне:
  • Аккорды и текст

Страница создана 04.08.2013
http://primanota.ru/eskimo-joe/morning-light-chords.htm
Привет, Гость.
Предлагаем пройти революционный курс по гитаре.
Подарок от PrimaNota.Ru, забирай!