PrimaNota.ru - самый крупный в мире бесплатный архив песенных текстов, аккордов, табулатур и нот


Eskimo Joe - Love List - текст песни, таба, видео

Регистрация Запомнить меня
Войти через:  Facebook Google Twitter Vk Yandex Mail.ru

Eskimo Joe - Love List - текст песни, таба, видео

Печатать
Просмотров: 127
eskimo joe - love list

Album - Girl

Order:
   Intro
   Verse
   Chorus
   Bridge
   Verse
   Chorus
   Bridge x 2
   Chorus

Intro (Guitar 1)
~~~~~~~~~~~~~~~~

      F#                              A
E: |--2-------------------------------5--------------------------------|
B: |--2-------------------------------5--------------------------------|
G: |--3-------------------------------6--------------------------------|
D: |--4-------------------------------7--------------------------------|
A: |--4-------------------------------7--------------------------------|
E: |--2-------------------------------5--------------------------------|

      E
E: |--0----------------------------------------------------------------|
B: |--0----------------------------------------------------------------|
G: |--1----------------------------------------------------------------|
D: |--2----------------------------------------------------------------|
A: |--2----------------------------------------------------------------|
E: |--0----------------------------------------------------------------|

      F#                              A
E: |--2-------------------------------5--------------------------------|
B: |--2-------------------------------5--------------------------------|
G: |--3-------------------------------6--------------------------------|
D: |--4-------------------------------7--------------------------------|
A: |--4-------------------------------7--------------------------------|
E: |--2-------------------------------5--------------------------------|

      E               A               C#              F#
E: |--0---------------5---------------4---------------2----------------|
B: |--0---------------5---------------6---------------2----------------|
G: |--1---------------6---------------6---------------3----------------|
D: |--2---------------7---------------6---------------4----------------|
A: |--2---------------7---------------4---------------4----------------|
E: |--0---------------5---------------4---------------2----------------|

Intro (Guitar 2)
~~~~~~~~~~~~~~~~

E: |-------------------------------------------------------------------|
B: |-------------------------------------------------------------------|
G: |-------------------------------------------------------------------|
D: |-------------------------------------------------------------------|
A: |-------------------------------------------------------------------|
E: |-------------------------------------------------------------------|

E: |-------------------------------------------------------------------|
B: |-------------------------------------------------------------------|
G: |-------------------------------------------------------------------|
D: |-------------------------------------------------------------------|
A: |-------------------------------------------------------------------|
E: |-------------------------------------------------------------------|

E: |--------0-------0-------0---------------0-------0-------0----------|
B: |------0-----0-------0-------0---0-----0-----0-------0-------0---0--|
G: |----1---------1-------1-------1-----2---------2-------2-------2----|
D: |--2-------------------------------2--------------------------------|
A: |-------------------------------------------------------------------|
E: |-------------------------------------------------------------------|

E: |--------0---------------0---------------0---------------0----------|
B: |------0-----0---0-----0-----0---0-----0-----0---0-----0-----0---0--|
G: |----1---------1-----2---------2-----3---------3-----4---------4----|
D: |--2---------------2---------------2---------------2----------------|
A: |-------------------------------------------------------------------|
E: |-------------------------------------------------------------------|


Verse (Guitar 1)
~~~~~~~~~~~~~~~~

      E               C#              F#              A
E: |--0---------------4---------------2---------------5----------------|
B: |--0---------------6---------------2---------------5----------------|
G: |--1---------------6---------------3---------------6----------------|
D: |--2---------------6---------------4---------------7----------------|
A: |--2---------------4---------------4---------------7----------------|
E: |--0---------------4---------------2---------------5----------------|

      E               A               C#              F#
E: |--0---------------5---------------4---------------2----------------|
B: |--0---------------5---------------6---------------2----------------|
G: |--1---------------6---------------6---------------3----------------|
D: |--2---------------7---------------6---------------4----------------|
A: |--2---------------7---------------4---------------4----------------|
E: |--0---------------5---------------4---------------2----------------|

      E               A               F#              A
E: |--0---------------5---------------2---------------5----------------|
B: |--0---------------5---------------2---------------5----------------|
G: |--1---------------6---------------3---------------6----------------|
D: |--2---------------7---------------4---------------7----------------|
A: |--2---------------7---------------4---------------7----------------|
E: |--0---------------5---------------2---------------5----------------|

      E               C#              F#              A
E: |--0---------------4---------------2---------------5----------------|
B: |--0---------------6---------------2---------------5----------------|
G: |--1---------------6---------------3---------------6----------------|
D: |--2---------------6---------------4---------------7----------------|
A: |--2---------------4---------------4---------------7----------------|
E: |--0---------------4---------------2---------------5----------------|

      E               A               F#              A
E: |--0---------------5---------------2---------------5----------------|
B: |--0---------------5---------------2---------------5----------------|
G: |--1---------------6---------------3---------------6----------------|
D: |--2---------------7---------------4---------------7----------------|
A: |--2---------------7---------------4---------------7----------------|
E: |--0---------------5---------------2---------------5----------------|


Verse (Guitar 2)
~~~~~~~~~~~~~~~~

      G#      E       C#      E       G#      E       C#      E
E: |-------------------------------------------------------------------|
B: |-------------------------------------------------------------------|
G: |--13------9-------6-------9-------13------9-------6-------9--------|
D: |-------------------------------------------------------------------|
A: |--11------7-------4-------7-------11------7-------4-------7--------|
E: |-------------------------------------------------------------------|

      G#      E       C#      E       G#              C#
E: |-------------------------------------------------------------------|
B: |-------------------------------------------------------------------|
G: |--13------9-------6-------9-------13--------------6----------------|
D: |-------------------------------------------------------------------|
A: |--11------7-------4-------7-------11--------------4----------------|
E: |-------------------------------------------------------------------|

      G#      E       C#      E       G#      E       C#      E
E: |-------------------------------------------------------------------|
B: |-------------------------------------------------------------------|
G: |--13------9-------6-------9-------13------9-------6-------9--------|
D: |-------------------------------------------------------------------|
A: |--11------7-------4-------7-------11------7-------4-------7--------|
E: |-------------------------------------------------------------------|

      G#      E       C#      E       G#              C#
E: |-------------------------------------------------------------------|
B: |-------------------------------------------------------------------|
G: |--13------9-------6-------9-------13--------------6----------------|
D: |-------------------------------------------------------------------|
A: |--11------7-------4-------7-------11--------------4----------------|
E: |-------------------------------------------------------------------|

      G#      E       C#      E       G#      E       C#
E: |-------------------------------------------------------------------|
B: |-------------------------------------------------------------------|
G: |--13------9-------6-------9-------13------9-------6----------------|
D: |-------------------------------------------------------------------|
A: |--11------7-------4-------7-------11------7-------4----------------|
E: |-------------------------------------------------------------------|


Chorus (Guitar 1)
~~~~~~~~~~~~~~~~~

      F#                              A
E: |--2-------------------------------5--------------------------------|
B: |--2-------------------------------5--------------------------------|
G: |--3-------------------------------6--------------------------------|
D: |--4-------------------------------7--------------------------------|
A: |--4-------------------------------7--------------------------------|
E: |--2-------------------------------5--------------------------------|

      E
E: |--0----------------------------------------------------------------|
B: |--0----------------------------------------------------------------|
G: |--1----------------------------------------------------------------|
D: |--2----------------------------------------------------------------|
A: |--2----------------------------------------------------------------|
E: |--0----------------------------------------------------------------|

      F#                              A
E: |--2-------------------------------5--------------------------------|
B: |--2-------------------------------5--------------------------------|
G: |--3-------------------------------6--------------------------------|
D: |--4-------------------------------7--------------------------------|
A: |--4-------------------------------7--------------------------------|
E: |--2-------------------------------5--------------------------------|

      E
E: |--0----------------------------------------------------------------|
B: |--0----------------------------------------------------------------|
G: |--1----------------------------------------------------------------|
D: |--2----------------------------------------------------------------|
A: |--2----------------------------------------------------------------|
E: |--0----------------------------------------------------------------|

Chorus (Guitar 2)
~~~~~~~~~~~~~~~~~

E: |--------0-------0-------0---------------0-------0-------0----------|
B: |------0-----0-------0-------0---0-----0-----0-------0-------0---0--|
G: |----3---------3-------3-------3-----2---------2-------2-------2----|
D: |--2-------------------------------2--------------------------------|
A: |-------------------------------------------------------------------|
E: |-------------------------------------------------------------------|

E: |--------0-------0-------0---------------4-------4-------4----------|
B: |------0-----0-------0-------0---0-----0-----0-------0-------0---0--|
G: |----1---------1-------1-------1-----1---------1-------1-------1----|
D: |--2-------------------------------2--------------------------------|
A: |-------------------------------------------------------------------|
E: |-------------------------------------------------------------------|

E: |--------4-------4-------4---------------0-------0-------0----------|
B: |------0-----0-------0-------0---0-----0-----0-------0-------0---0--|
G: |----3---------3-------3-------3-----2---------2-------2-------2----|
D: |--2-------------------------------2--------------------------------|
A: |-------------------------------------------------------------------|
E: |-------------------------------------------------------------------|

(Don't play on last chorus)
E: |--------0---------------0---------------0---------------0----------|
B: |------0-----0---0-----0-----0---0-----0-----0---0-----0-----0---0--|
G: |----1---------1-----2---------2-----3---------3-----4---------4----|
D: |--2---------------2---------------2---------------2----------------|
A: |-------------------------------------------------------------------|
E: |-------------------------------------------------------------------|


Bridge
~~~~~~
      E               B               A               C   D
E: |--7---------------7---------------5---------------3---5------------|
B: |--9---------------7---------------5---------------5---7------------|
G: |--9---------------8---------------6---------------5---7------------|
D: |--9---------------9---------------7---------------5---7------------|
A: |--7---------------9---------------7---------------3---5------------|
E: |--7---------------7---------------5---------------3---5------------|

      E               B               A               C       D
E: |--7---------------7---------------5---------------3-------5--------|
B: |--9---------------7---------------5---------------5-------7--------|
G: |--9---------------8---------------6---------------5-------7--------|
D: |--9---------------9---------------7---------------5-------7--------|
A: |--7---------------9---------------7---------------3-------5--------|
E: |--7---------------7---------------5---------------3-------5--------|

Добавлено: 11.08.2013
Другие материалы по этой песне:
  • Аккорды и текст

Страница создана 24.02.2012
http://primanota.ru/eskimo-joe/love-list-chords.htm
Привет, Гость.
Предлагаем пройти революционный курс по гитаре.
Подарок от PrimaNota.Ru, забирай!