PrimaNota.ru - самый крупный в мире бесплатный архив песенных текстов, аккордов, табулатур и нот


Eskimo Joe - Life Is Better With You - текст песни, таба, видео

Регистрация Запомнить меня
Войти через:  Facebook Google Twitter Vk Yandex Mail.ru

Eskimo Joe - Life Is Better With You - текст песни, таба, видео

Печатать
Просмотров: 120
Hey guys
I've only just started playing, and this is my first go at a tab. Leave feed back,
good or bad. haha here goes

Eskimo Joe - Life is better with you
Standard Tuning

This first part is for the person not really strumming all the time, just with the
little fancy add-ons

First plucking bit (at the very start of song)

e |------------------------------------------|
b |--5h12-----12h5---7-8-7-5-3h2-------------|
g |------------------------------------------|   
d |------------------------------------------|
a |------------------------------------------|
E |------------------------------------------|

Hold the 3 for a bit, before sliding to 2. Try to follow the song

****************************************************************************

Plucking before chorus, "...falling off the ground"

e |-----------------------------------------------|
b |-----------------------------------------------|
g |--------0-----------0------------0--------0----|   
d |-----2-----------0------------0--------0-------|
a |--3--------3-----------------------------------|
E |--------------3--------3---5--------5----------|

But if you don't want to pluck it, you can do this:
'Build-up'

e |--------------------------------------------------|
b |--------------------------------------------------|
g |--5--5--5--5--------------------------------------|   
d |--5--5--5--5--5--5--5--5--7--7--7--7--7--7--7--7--|
a |--3--3--3--3--5--5--5--5--7--7--7--7--7--7--7--7--|
E |--------------3--3--3--3--5--5--5--5--5--5--5--5--|

****************************************************************************

Third plucking bit, "It happens all the time.."


e |------------------------------------------|
b |------------------------------------------|
g |-----7--9--11--14--11--9--11--------------|   
d |--9---------------------------------------|
a |------------------------------------------|
E |------------------------------------------|

****************************************************************************

This second section is for the person who the main strumming dude

Verses (Throughout the song)

e |--------------------------------------------------|
b |--------------------------------------------------|
g |--9--9--9--9--9--9--9--9--------------------------|   
d |--9--9--9--9--9--9--9--9--7--7--7--7--7--7--7--7--|
a |--7--7--7--7--7--7--7--7--7--7--7--7--7--7--7--7--|
E |--------------------------5--5--5--5--5--5--5--5--|

****************************************************************************

Chorus 1 & 2

e |-------------------------------------|
b |-------------------------------------|
g |-----------------------5-------------|   
d |--5--7--9--7--5--7--9--5--5--7-------|
a |--5--7--9--5--5--7--9--3--5--7-------|
E |--3--5--7--5--3--5--7-----3--5-------|


Thats what who have to strum, just listen to the song and strum as you like.

****************************************************************************

Other part; lyrics start at "It happens all the time.."
e |-----------------------------------|
b |-----------------------------------|
g |---7--9-----7--9--------7--9-------|   
d |---7--9--7--7--9--7--8--7--9--7----|
a |---5--7--7--5--7--7--8--5--7--7----|
E |---------5--------5--6--------5----|


Same as earlier, that is what you need to strum, just listen and strum along.


****************************************************************************
Chorus till fade
e |-------------------------------|
b |-------------------------------|
g |-------------------------------|   
d |--5--7--9--7--5--7--9--7-------|
a |--5--7--9--5--5--7--9--7-------|
E |--3--5--7--5--3--5--7--5-------|


The song finishes with the chorus till the end, played like this.



Song goes as follows:
Verse x 7.5 times followed by 'build-up'
Chorus 1
Verse x 4
Chorus 2
Other Part
Chorus till fade
Добавлено: 05.08.2013
Другие материалы по этой песне:
  • Аккорды и текст

Страница создана 09.06.2012
http://primanota.ru/eskimo-joe/life-is-better-with-you-chords.htm
Привет, Гость.
Предлагаем пройти революционный курс по гитаре.
Подарок от PrimaNota.Ru, забирай!