PrimaNota.ru - самый крупный в мире бесплатный архив песенных текстов, аккордов, табулатур и нот


Eskimo Joe - Just Like Me - текст песни, таба, видео

Регистрация Запомнить меня
Войти через:  Facebook Google Twitter Vk Yandex Mail.ru

Eskimo Joe - Just Like Me - текст песни, таба, видео

Печатать
Просмотров: 130
Уроки эстрадного вокала в Санкт-Петербурге
Eskimo Joe - Just Like Me

Album - Girl


Order:
   Intro
   Verse
   Chorus
   Lead Break
   Verse
   Chorus
   Bridge
   Chorus

Intro
~~~~~

E: |-----------------------------------------------------|
B: |------6-----------6-----------------6-------------4--|
G: |--6---6---6---6-8-6-6-----------6-8-6-6-----------6--|
D: |------8-106---7-------6-5-----4---------6-5-----4-4--|
A: |----8-------7-------------6/7---------------6/7------|
E: |-----------------------------------------------------|

Verse
~~~~~
      Bbm     A       c#      F#      A
E: |--6-------5-------4-------2-------5---------|
B: |--6-------5-------6-------2-------5---------|
G: |--6-------6-------6-------3-------6---------| x 2
D: |--8-------7-------6-------4-------7---------|
A: |--8-------7-------4-------4-------7---------|
E: |--6-------5-------4-------2-------5---------|

      Bbm     A       c#      F#
E: |--6-------5-------4-------2-----------------|
B: |--6-------5-------6-------2-----------------|
G: |--6-------6-------6-------3-----------------|
D: |--8-------7-------6-------4-----------------|
A: |--8-------7-------4-------4-----------------|
E: |--6-------5-------4-------2-----------------|


Chorus
~~~~~~
      Eb      F#      Bbm     G#      Eb      F#      C#      A       C#      A
E: |--6-------2-------6-------4-------6-------2-------4-------5-------4-------5--------|
B: |--8-------2-------6-------4-------8-------2-------6-------5-------6-------5--------|
G: |--8-------3-------6-------5-------8-------3-------6-------6-------6-------6--------|
D: |--8-------4-------8-------6-------8-------4-------6-------7-------6-------7--------|
A: |--6-------4-------8-------6-------6-------4-------4-------7-------4-------7--------|
E: |--6-------2-------6-------4-------6-------2-------4-------5-------4-------5--------|

Lead Break (Guitar 1)
~~~~~~~~~~~~~~~~~~~~~
E: |--------------------------------------------|
B: |--------------------------------------------|
G: |--------------------------------------------|
D: |--------------------------------------------|
A: |-----8p6h8---8p6\4-4---------6---4-6h7p6h7--|
E: |-----------------------5/6------------------|

E: |--------------------------------------------|
B: |--------------------------------------------|
G: |-----15--------------15---------------------|
D: |-------15--13141314----15------13--13141314-|
A: |---------16--------------1616----16---------|
E: |--------------------------------------------|

Lead Break (Guitar 2)
~~~~~~~~~~~~~~~~~~~~~
      Bbm     A       c#      F#      A
E: |--6-------5-------4-------2-------5---------|
B: |--6-------5-------6-------2-------5---------|
G: |--6-------6-------6-------3-------6---------| x 2
D: |--8-------7-------6-------4-------7---------|
A: |--8-------7-------4-------4-------7---------|
E: |--6-------5-------4-------2-------5---------|


Bridge
~~~~~~
      F#              A               C#      A       C#      A
E: |--2---------------5---------------4-------5-------4-------5--|
B: |--2---------------5---------------6-------5-------6-------5--|
G: |--3---------------6---------------6-------6-------6-------6--| x 2
D: |--4---------------7---------------6-------7-------6-------7--|
A: |--4---------------7---------------4-------7-------4-------7--|
E: |--2---------------5---------------4-------5-------4-------5--|

Добавлено: 21.09.2013
Другие материалы по этой песне:
  • Аккорды и текст

Страница создана 08.03.2012
http://primanota.ru/eskimo-joe/just-like-me-chords.htm
Привет, Гость.
Предлагаем пройти революционный курс по гитаре.
Подарок от PrimaNota.Ru, забирай!